PrimaNota.ru - самый крупный в мире бесплатный архив песенных текстов, аккордов, табулатур и нот


Lemuria - Rough Draft - таба, видео

Регистрация Запомнить меня
Войти через:  Facebook Google Twitter Vk Yandex Mail.ru

Lemuria - Rough Draft - таба, видео

Печатать
Просмотров: 143
Уроки эстрадного вокала в Санкт-Петербурге
-------------------------------------------------------------------------------
Rough Draft - Lemuria
The First Collection

Band Website: http://www.myspace.com/lemuria
-------------------------------------------------------------------------------
Tabbed by: axeslash
Email: holmzito@yahoo.com

Tuning: Standard

e|-----------------|     E|------------------|
B|-----------------|     B|------------------|
G|-----------------|     G|------------------|
D|-----------------|     D|-2----------------|
A|-2-2-2-2-2-2-2-2-|     A|-0----------------|
E|-0-0-0-0-0-0-0-0-| x15 E|------------------|
  [X-X-X-X-X-X-X-X]        [X]

e|----------------------------------------------------------------|
B|----------------------------------------------------------------|
G|-2-2-2------------------------------2-2-2-----------------------|
D|-2-2-2-2----2------2------2------2--2-2-2-2----2------2------2--|
A|-0-0-0-2--2-2--2-2-2--2-2-2--2-2-2--0-0-0-2--2-2--2-2-2--2-2-2--|
E|-------0--0-0--0-0-0--0-0-0--0-0-0--------0--0-0--0-0-0--0-0-0--|

e|----------------------------------------------------------------|
B|----------------------------------------------------------------|
G|-------------------------------2--2-----------------------------|
D|-4--4--4--4--7--7--7--7--2--2--2--2--4----4----4-4-4----4----4--|
A|-4--4--4--4--7--7--7--7--2--2--0--0--4----4----4-4-4----4----4--|
E|-2--2--2--2--5--5--5--5--0--0--------2----2----2-2-2----2----2--|

e|--------------------------------------------------|
B|--------------------------------------------------|
G|--------------------------------------------------|
D|-7-7-7-7-7-7-7-7-4-4-4-4-4-4-4-4-2----------------|
A|-7-7-7-7-7-7-7-7-4-4-4-4-4-4-4-4-2----------------|
E|-5-5-5-5-5-5-5-5-2-2-2-2-2-2-2-2-0----------------|

e|-------------------------------------------------------------------------------|
B|-------------------------------------------------------------------------------|
G|-------------------------------------------------------------------------------|
D|----4--4-4-4-4-4-4-4-4-4-4-4-4-----------------7-7-7-7-7-7-7-7-7-7-7-7-7-7-7-7-|
A|-2--4--4-4-4-4-4-4-4-4-4-4-4-4-3-3-3-3-3-3-3-3-7-7-7-7-7-7-7-7-7-7-7-7-7-7-7-7-|
E|-0--2--2-2-2-2-2-2-2-2-2-2-2-2-4-4-4-4-4-4-4-4-5-5-5-5-5-5-5-5-5-5-5-5-5-5-5-5-|
  [X]

e|------------------------------------------------------------------|
B|------------------------------------------------------------------|
G|------------------------------------------------------------------|
D|-2----------------------------------------------------------------|
A|-2----------------------------------------------------------------|
E|-0----------------------------------------------------------------|

e|-----------------|     E|------------------|
B|-----------------|     B|------------------|
G|-----------------|     G|------------------|
D|-----------------|     D|-2----------------|
A|-2-2-2-2-2-2-2-2-|     A|-0----------------|
E|-0-0-0-0-0-0-0-0-| x7  E|------------------|
  [X-X-X-X-X-X-X-X]        [X]

e|----------------------------------------------------------------|
B|----------------------------------------------------------------|
G|-2-2-2------------------------------2-2-2-----------------------|
D|-2-2-2-2----2------2------2------2--2-2-2-2----2------2------2--|
A|-0-0-0-2--2-2--2-2-2--2-2-2--2-2-2--0-0-0-2--2-2--2-2-2--2-2-2--|
E|-------0--0-0--0-0-0--0-0-0--0-0-0--------0--0-0--0-0-0--0-0-0--|

e|----------------------------------------------------------------|
B|----------------------------------------------------------------|
G|-------------------------------2--2-----------------------------|
D|-4--4--4--4--7--7--7--7--2--2--2--2--4----4----4-4-4----4----4--|
A|-4--4--4--4--7--7--7--7--2--2--0--0--4----4----4-4-4----4----4--|
E|-2--2--2--2--5--5--5--5--0--0--------2----2----2-2-2----2----2--|

e|--------------------------------------------------|
B|--------------------------------------------------|
G|--------------------------------------------------|
D|-7-7-7-7-7-7-7-7-4-4-4-4-4-4-4-4-2----------------|
A|-7-7-7-7-7-7-7-7-4-4-4-4-4-4-4-4-2----------------|
E|-5-5-5-5-5-5-5-5-2-2-2-2-2-2-2-2-0----------------|

e|-----------------------------------------------------------------------|
B|-----------------------------------------------------------------------|
G|-----------------------------------------------------------------------|
D|----4--4-4-4-4-4-4-4-4-4-4-4-4-----------------7--7--7--7--7--7--7--7--|
A|-2--4--4-4-4-4-4-4-4-4-4-4-4-4-3-3-3-3-3-3-3-3-7--7--7--7--7--7--7--7--|
E|-0--2--2-2-2-2-2-2-2-2-2-2-2-2-4-4-4-4-4-4-4-4-5--5--5--5--5--5--5--5--|
  [X]

e|------------------------------------------------------------------|
B|------------------------------------------------------------------|
G|------------------------------------------------------------------|
D|-2----------------------------------------------------------------|
A|-2----------------------------------------------------------------|
E|-0----------------------------------------------------------------|


|[X] palm mute
| /  slide up
| \  slide down
| h  hammer-on
| p  pull-off
| ~  vibrato
| +  harmonic
| x  Mute note
===============================================================================
Добавлено: 26.04.2012
Другие материалы по этой песне:
  • Аккорды и текст

Страница создана 26.04.2012
http://primanota.ru/lemuria/rough-draft-chords.htm
Привет, Гость.
Предлагаем пройти революционный курс по гитаре.
Подарок от PrimaNota.Ru, забирай!