PrimaNota.ru - самый крупный в мире бесплатный архив песенных текстов, аккордов, табулатур и нот


Lemuria - Chautauqua County - текст песни, бас-таба, видео

Регистрация Запомнить меня
Войти через:  Facebook Google Twitter Vk Yandex Mail.ru

Lemuria - Chautauqua County - текст песни, бас-таба, видео

Печатать
Просмотров: 90
Новый альбом группы 'Черный Кузнец' по культовому сериалу 'Сверхъестественное'!
My first bass tab ever! I hope you like it ! :)

G|--------------------------------------------------------------------------------------|
D|----------------------------------5-5-5-5-5-5-5-5-4-4-4-4-2-2-2-2---------------------|
A|-5-5-5-5-5-5-5-5-5-5-5-5-5-5-5-5------------------------------------------------------|
E|--------------------------------------------------------------------------------------|

G|---------------------------------------------------------------------------------|
D|---------------------------------------------------------------------------------|
A|-0-0-0-0-0-0-0-0-0-0-0-0-0-0-0-0-3-3-3-3-3-3-3-3-3-3-3-3-3-3-3-3-----------------|
E|---------------------------------------------------------------------------------| x6




G|--------------------------------------------------------------------------------------|
D|------------------4----8---------------------4----8-----------------------------------|
A|-5-5-5-5-5-5-5-5----7----0-5-5-5-5-5-5-5-5----7----0----------------------------------|
E|--------------------------------------------------------3-3-3-3-3-3-3-3-3-3-3-3-------|


G|-------------------------------------------------------------------------------|
D|-------------------------------------------------------------------------------|
A|-------------------------------------------------------------------------------|
E|-3-3-3-3-3-3-3-3-3-3-3-3-3-3-3-3-3-3-3-3-3-3-3-3-------------------------------| x2




G|--------------------------------------------------------------------------------------|
D|----------------------------------5-5-5-5-5-5-5-5-4-4-4-4-2-2-2-2---------------------|
A|-5-5-5-5-5-5-5-5-5-5-5-5-5-5-5-5------------------------------------------------------|
E|--------------------------------------------------------------------------------------|

G|---------------------------------------------------------------------------------|
D|---------------------------------------------------------------------------------|
A|-0-0-0-0-0-0-0-0-0-0-0-0-0-0-0-0-3-3-3-3-3-3-3-3-3-3-3-3-3-3-3-3-----------------|
E|---------------------------------------------------------------------------------| x2




G|----------------------------------------------------------------------------|
D|------------------4----8---------------------4----8-------------------------|
A|-5-5-5-5-5-5-5-5----7----0-5-5-5-5-5-5-5-5----7----0------------------------|
E|--------------------------------------------------------3-3-3-3-3-3-3-3-----|


G|-------------------------------------------------------------------------------|
D|-------------------------------------------------------------------------------|
A|-------------------------------------------------------------------------------|
E|-3-3-3-3-3-3-3-3-3-3-3-3-3-3-3-3-3-3-3-----------------------------------------| x2



G|----------------------------7---------------------------7----------------------|
D|----------------------4--7------------------------4--7-------------------------|
A|--5-5-5-5-5-5-5-5--7----------5-5-5-5-5-5-5-5--7-------------------------------|
E|-------------------------------------------------------------------------------|


G|-------------------------------------------------------------------------------------|
D|-------------------------------------------------------------------------------------|
A|-------------------------------------------------------------------------------------|
E|-3-3-3-3-3-3-3-3-3-3-3-3-3-3-3-3-3-3-3-3-3-3-3-3-6-6-6-6-6-6-6-6-5-5-5-5-5-5-5-5-----|

x4
Добавлено: 27.02.2014
Вам также может быть интересно:
Другие материалы по этой песне:
  • Аккорды и текст

Страница создана 27.02.2014
http://primanota.ru/lemuria/chautauqua-county-chords.htm
Привет, Гость.
Предлагаем пройти революционный курс по гитаре.
Подарок от PrimaNota.Ru, забирай!