PrimaNota.ru - самый крупный в мире бесплатный архив песенных текстов, аккордов, табулатур и нот


Lemonheads - If I could Talk I - аккорды и текст, видео

Регистрация Запомнить меня
Войти через:  Facebook Google Twitter Vk Yandex Mail.ru

Lemonheads - If I could Talk I - аккорды и текст, видео

Печатать
Просмотров: 58
If I could Talk I
Lemonheads
To get these chords into the proper key you must use a capo at
the 2ND Fret....
The verses go like this.......

    (C)
[e---1---1-----0---0-----1--1----0--------
b---1---1-----1---1-----1--1----1--------
g---2---2-----0---0-----2--2----0--------
d---3---3-----2---2-----3--3----2--------
a---x---x-----3---3-----x--x----3--------
E----------------------------------------]
   Half past nine.......quarter to ten...

    (C)
[e---1--1-----0---0------x--x-----------
b---1--1-----1---1------1--1--3--1--0--
g---2--2-----0---0------0--0--0--0--0--
d---3--3-----2---2------0--0--0--------
a---x--x-----3---3------2--2-----------
E-----------------------3--3-----------]

Ten Fifteen... now we're coming around again.....

The Chorus goes....
  (G)
If I could talk I'd tell you......
 (A)
If I could smile I'd let you know....
 (G)
You are far and away....my most imaginary friend.....
(If I could talk I'd tell you)
That's pretty much the whole song.... listen to the album and you
shoud pick up the rhythm with no trouble...
Добавлено: 08.05.2014
Другие материалы по этой песне:
  • Аккорды и текст

Страница создана 08.05.2014
http://primanota.ru/lemonheads/if-i-could-talk-i-chords.htm
Привет, Гость.
Предлагаем пройти революционный курс по гитаре.
Подарок от PrimaNota.Ru, забирай!