PrimaNota.ru - самый крупный в мире бесплатный архив песенных текстов, аккордов, табулатур и нот


Lemonheads - Hospital - аккорды и текст, видео

Регистрация Запомнить меня
Войти через:  Facebook Google Twitter Vk Yandex Mail.ru

Lemonheads - Hospital - аккорды и текст, видео

Печатать
Просмотров: 91
Hospital
Lemonheads
		   Author/Artist: Lemonheads
Title: Hospital
Album: Car Button Cloth
Transcribed by: Garvan Butler
Email: earthhorse@september.co.uk



Play with capo on 2nd Fret.  All 0's refer to capo at 2nd fret.

------0-------x-----3---------------------------------------------------------
------1-------1-----3---------------------------------------------------------
------0-------2-----0---------------------------------------------------------
------2-------3-----0---------------------------------------------------------
------3-------3-----2---------------------------------------------------------
------x-------x-----3---------------------------------------------------------
 There's a...                                                                 

------0-------x-----3---------------------------------------------------------
------1-------1-----3---------------------------------------------------------
------0-------2-----0---------------------------------------------------------
------2-------3-----0---------------------------------------------------------
------3-------3-----2---------------------------------------------------------
------x-------x-----3---------------------------------------------------------
                                                                              

------0-------0-----3---------------------------------------------------------
------0-------1-----3---------------------------------------------------------
------0-------0-----0---------------------------------------------------------
------2-------2-----0---------------------------------------------------------
------2-------3-----2---------------------------------------------------------
------0-------x-----3---------------------------------------------------------
  Green, green...                                                             

------0-------0-----3---------------------------------------------------------
------0-------1-----3---------------------------------------------------------
------0-------0-----0---------------------------------------------------------
------2-------2-----0---------------------------------------------------------
------2-------3-----2---------------------------------------------------------
------0-------x-----3---------------------------------------------------------
                                                                              

------0-------x-----3---------------------------------------------------------
------1-------1-----3---------------------------------------------------------
------0-------2-----0---------------------------------------------------------
------2-------3-----0---------------------------------------------------------
------3-------3-----2---------------------------------------------------------
------x-------x-----3---------------------------------------------------------
  You've got to..                                                             
     
Добавлено: 01.08.2013
Другие материалы по этой песне:
  • Аккорды и текст

Страница создана 04.03.2012
http://primanota.ru/lemonheads/hospital-chords.htm
Привет, Гость.
Предлагаем пройти революционный курс по гитаре.
Подарок от PrimaNota.Ru, забирай!