PrimaNota.ru - самый крупный в мире бесплатный архив песенных текстов, аккордов, табулатур и нот


Lemonheads - Bit Part - аккорды и текст, таба, видео

Регистрация Запомнить меня
Войти через:  Facebook Google Twitter Vk Yandex Mail.ru

Lemonheads - Bit Part - аккорды и текст, таба, видео

Печатать
Просмотров: 174
Авторы музыки: Evan Dando
Авторы текста: Evan Dando, Tom Morgan
Bit Part
Lemonheads
Weird chords: Esus2/F# : [999000]       Dsus2 : [x57755]
              Dsus2(add6) : [x57700]    C7M   : [x32000]
              C(1) : [x35050]           D : [x57x7x]
              D(add9/11) : [x57070]     G7M/C   : [x30002]

Intro:		 Esus2/F#  Dsus2 Dsus2(add6)   C7M    G  C(1) 
 C  D Dadd9/11   Bm  Bm  C  G  Am  Em  C 
 D Dadd9/11  Bm  Bm 

         G7M                   Em
I want a bit part in your life,
  Gmah7/C               Dsus4
A walk-on would be fine.
              G7M                   Em
I just want a bit part in your life,
G7M/C            Dsus4
(A bit part in your life).
         G7M                   Em
I want a bit part in your life,
   G7M/C                Dsus4
Rehearsing all the time.
              G7M                   Em
I just want a bit part in your life,
G7M/C            Dsus4
(A bit part in your life).
C         Bm
Little more than a cameo
C          Dsus4
Nothing traumatic when I go
C             Bm
Litle more than a stand-in,
  C           Dsus4
I won't need reprimanding.

-

[E--------------------------------------------------
B--------------------------------------------------
G----9------7------5-------------5------7----------
D----9------7------5------5------5------7------9---
A----7------5------3------5------3------5------9---
E-------------------------3--------------------7---

E--------------------------------------------------
B--------------------------------------------------
G---5---------------------9------5------7----------
D---5-------5------7------9------5------7------9---
A---3-------5------7------7------3------5------9---
E-----------3------5---------------------------7---]

GI want a bit part in your Emlife
GA walk-on would be Emfine
GI just want a bit part in your Emlife
G(A bit part in your Emlife)
I want a bit part in your life
Rehearsing all the time
I just want a bit part in your life
(A bit part in your life)
CLittle more than a D/F#cameo
CNothing traumatic wD/F#hen I go
Litle more than a stand-in
I won't need reprimanding
Добавлено: 16.11.2013
Другие материалы по этой песне:
  • Аккорды и текст

Страница создана 12.03.2012
http://primanota.ru/lemonheads/bit-part-chords.htm
Привет, Гость.
Предлагаем пройти революционный курс по гитаре.
Подарок от PrimaNota.Ru, забирай!