PrimaNota.ru - самый крупный в мире бесплатный архив песенных текстов, аккордов, табулатур и нот


Lemongrass - Where Is Mr Spock - таба, видео

Регистрация Запомнить меня
Войти через:  Facebook Google Twitter Vk Yandex Mail.ru

Lemongrass - Where Is Mr Spock - таба, видео

Печатать
Просмотров: 85
-------------------------------------------------------------------------------
                             Where is Mr. Spock? - Lemongrass
-------------------------------------------------------------------------------
Tabbed by:majorseventh
E-mail:cwarner3000@gmail.com


From the album Sirius on lemongrassmusic. Website http://lemongrassmusic.de/releases/


Play along on youtube at https://www.youtube.com/watch?v=LvCmq5lWlEE

Ill post a guitar pro version too



Song is in key of F# so tune down a half step 


Tuning:EbAbDbGbBbeb

Part 1
    Gmaj7  D     A
eb|---------------------------------------------------------------------------|
Bb|--------------2----0-------------------------------------------------------|
Gb|--------2----------------repeatx4------------------------------------------|
Db|--4-----4------------------------------------------------------------------|
Ab|--------------0------------------------------------------------------------|
Eb|--3------------------------------------------------------------------------|

Part 2
    Gmaj7  D     A
eb|--------2------------------------------------------------------------------|
Bb|--0-----------2----0-------------------------------------------------------|
Gb|--------2-----2----------repeatx4------------------------------------------|
Db|--4-----0------------------------------------------------------------------|
Ab|--------------0------------------------------------------------------------|
Eb|--3------------------------------------------------------------------------|

Part 3
     D     Bm    A    Gmaj7
eb|---------------------------------------------------------------------------|
Bb|--3-----------2-------------------------------------3----------------------|
Gb|--------4-----------------repeat 3 times then play--0-for 8 beats----------|
Gb|--0-----------------4-------------------------------4----------------------|
Ab|--------2-----0------------------------------------------------------------|
Eb|--------------------3-------------------------------3----------------------|

Song is arranged 
Part 1
Part 2
Part 1
Part 2
Part 3
Part 1
Part 2
Part 2 and ends on the chord at the end of part 3


************************************

| /   slide up
| \   slide down
| h   hammer-on
| p   pull-off
| ~   vibrato
| +   harmonic
| x   Mute note
| b   Bend
| pb  Pre-bend
| br  Bend release
| pbr Pre-bend release
| brb Bend release bend

************************************
Добавлено: 07.06.2016
Другие материалы по этой песне:

Страница создана 07.06.2016
http://primanota.ru/lemongrass/where-is-mr-spock-chords.htm
Привет, Гость.
Предлагаем пройти революционный курс по гитаре.
Подарок от PrimaNota.Ru, забирай!