PrimaNota.ru - самый крупный в мире бесплатный архив песенных текстов, аккордов, табулатур и нот


Lemon Jelly - A Tune For Jack - текст песни, таба, видео

Регистрация Запомнить меня
Войти через:  Facebook Google Twitter Vk Yandex Mail.ru

Lemon Jelly - A Tune For Jack - текст песни, таба, видео

Печатать
Просмотров: 73
Авторы музыки: Jimmy Webb

-------------------------------------------------------------------------------
                             A Tune for Jack Piano Riff- Lemon Jelly
-------------------------------------------------------------------------------
Tabbed by: ADT/DT, /u/s9meNiNE (reddit)
E-mail: dyra.thorvaldsson@gmail.com
Notes: Rhythm is really wacky, you'll have to figure that out by yourself.
       It's in the key of Gmajor, switching between the chords GbMaj7 along DbAdd9Sus4, 

Tuning: Standard EBGDAE

e|-6--7--8--9--6--4--2--1--2--1----------------------------------------------|
B|-------------------------------2-----------2--0----------------------------|
G|----------------------------------1--2--3--------3-----1-------------------|
D|----------------------------------------------------4----------------------|
A|---------------------------------------------------------------------------|
E|---------------------------------------------------------------------------|

e|----------------------------1--4--1--2--4--1-------------------------------|
B|-------------------------2--------------------2----2--4--2-----2-----2----2|
G|-3--1-----1-----1--2--3--------------------------3----------3-----3----3---|
D|-------4-----4-------------------------------------------------------------|
A|---------------------------------------------------------------------------|
E|---------------------------------------------------------------------------|
Добавлено: 01.06.2016
Другие материалы по этой песне:
  • Аккорды и текст

Страница создана 26.08.2014
http://primanota.ru/lemon-jelly/tune-for-jack-chords.htm
Привет, Гость.
Предлагаем пройти революционный курс по гитаре.
Подарок от PrimaNota.Ru, забирай!