PrimaNota.ru - самый крупный в мире бесплатный архив песенных текстов, аккордов, табулатур и нот


Lemon Jelly - Staunton Lick - текст песни, таба, бас-таба, видео

Регистрация Запомнить меня
Войти через:  Facebook Google Twitter Vk Yandex Mail.ru

Lemon Jelly - Staunton Lick - текст песни, таба, бас-таба, видео

Печатать
Просмотров: 152
Most of this song is created by the funk that is Lemon Jelly, but I've guitared a few of 
and spliced a few together to make it sound half decent solo acoustic.

Hope it works for you.

....hold down a chord of C....

e:|------0--------0--|
B:|------1--------1--|
G:|------2--------2--|
D:|------------------|
A:|--3--------3------|
E:|------------------|

After a few, I like to throw in the bass line as well, a little tricky but if played 
sounds pretty cool

e:|----------0----------0---|
B:|----------1----------1---|
G:|----------2----------2---|
D:|-------------0-----------|
A:|----0-h3--3-----3--3-----|
E:|--3--------------------3-|

Just before the main verse kicks in, a Cmaj is played for a while

e:|----0-----|
B:|----1-----|
G:|----2-----|
D:|----0-----|
A:|----3-----|
E:|----3-----|

And after it does, something similar to these chords are played:

e:|---10---8-----|
B:|---8----6-----|
G:|---9----7-----|
D:|---x----x-----|
A:|---10---8-----|
E:|---8----6-----|

Note, play the low E with your thumb

Listen to the song to figure out the rythem
Добавлено: 15.06.2012
Другие материалы по этой песне:
  • Аккорды и текст

Страница создана 14.06.2012
http://primanota.ru/lemon-jelly/staunton-lick-chords.htm
Привет, Гость.
Предлагаем пройти революционный курс по гитаре.
Подарок от PrimaNota.Ru, забирай!