PrimaNota.ru - самый крупный в мире бесплатный архив песенных текстов, аккордов, табулатур и нот


Lemolo - Hold Light - бас-таба, видео

Регистрация Запомнить меня
Войти через:  Facebook Google Twitter Vk Yandex Mail.ru

Lemolo - Hold Light - бас-таба, видео

Печатать
Просмотров: 26
Новый альбом группы 'Черный Кузнец' по культовому сериалу 'Сверхъестественное'!
-------------------------------------------------------------------------
                           Lemolo - Hold Light
-------------------------------------------------------------------------
Tabbed by: boblentil

Tuning: Standard


Verse 1 (0:00 to 0:54)

   1-+-2-+-3-+-4-+-1-+-2-+-3-+-4-+-1-+-2-+-3-+-4-+-1-+-2-+-3-+-4-+-  \
G|-----------------------------------------------------------------| |
D|-----------------------------------------------------------------| |
A|-----------------------------------------------------------------| |
E|-2-------------------------------0-------------------------------| |
B|-------------------------------------------------3---------------| |
                                                                     | 4x
   1-+-2-+-3-+-4-+-1-+-2-+-3-+-4-+-1-+-2-+-3-+-4-+-1-+-2-+-3-+-4-+-  |
G|-----------------------------------------------------------------| |
D|-----------------------------------------------------------------| |
A|-----------------------------------------------------------------| |
E|-2---------------------------5---0-------------------------------| |
B|-------------------------------------------------3---3---3---3---| |
                                                                     /

Chorus (0:54 to 1:21)

   1-+-2-+-3-+-4-+-1-+-2-+-3-+-4-+-1-+-2-+-3-+-4-+-1-+-2-+-3-+-4-+-  \
G|-----------------------------------------------------------------| |
D|-----------------------------------------------------------------| |
A|-----------------------------------------------------------------| |
E|-2-----------------2-2---------2-0-------------------------------| |
B|-------------------------------------------------3-----------2---| |
                                                                     | 2x
   1-+-2-+-3-+-4-+-1-+-2-+-3-+-4-+-1-+-2-+-3-+-4-+-1-+-2-+-3-+-4-+-  |
G|-----------------------------------------------------------------| |
D|-----------------------------------------------------------------| |
A|-----------------------------------------------------------------| |
E|-2-------------------------------5---------------0-----0-----0---| |
B|-----------------------------------------------------------------| |
                                                                     /

Verse 2 (1:21 to 2:15)

   1-+-2-+-3-+-4-+-1-+-2-+-3-+-4-+-1-+-2-+-3-+-4-+-1-+-2-+-3-+-4-+-  \
G|-----------------------------------------------------------------| |
D|-----------------------------------------------------------------| |
A|-----------------------------------------------------------------| |
E|-2-------------------------------0-------------------------------| |
B|-------------------------------------------------3---------------| |
                                                                     | 3x
   1-+-2-+-3-+-4-+-1-+-2-+-3-+-4-+-1-+-2-+-3-+-4-+-1-+-2-+-3-+-4-+-  |
G|-----------------------------------------------------------------| |
D|-----------------------------------------------------------------| |
A|-----------------------------------------------------------------| |
E|-2---------------------------5---0-------------------------------| |
B|-------------------------------------------------3---3---3---3---| |
                                                                     /
   1-+-2-+-3-+-4-+-1-+-2-+-3-+-4-+-1-+-2-+-3-+-4-+-1-+-2-+-3-+-4-+- 
G|-----------------------------------------------------------------|
D|-----------------------------------------------------------------|
A|-----------------------------------------------------------------|
E|-2-------------------------------0-------------------------------|
B|-------------------------------------------------3---------------|

   1-+-2-+-3-+-4-+-1-+-2-+-3-+-4-+-1-+-2-+-3-+-4-+-1-+-2-+-3-+-4-+- 
G|-----------------------------------------------------------------|
D|-----------------------------------------------------------------|
A|-----------------------------------------------------------------|
E|-2---------------------------5---0-------------------------------|
B|-------------------------------------------------3---------------|


Repeat Chorus (2:15 to 2:42)


Pre-Outro (2:42 to 3:09)

   1-+-2-+-3-+-4-+-1-+-2-+-3-+-4-+-1-+-2-+-3-+-4-+-1-+-2-+-3-+-4-+-
G|-----------------------------------------------------------------|
D|-----------------------------------------------------------------|
A|-----------------------------------------------------------------|
E|-2-------------------------------0-------------------------------|
B|-------------------------------------------------3---3-----------|

   1-+-2-+-3-+-4-+-1-+-2-+-3-+-4-+-1-+-2-+-3-+-4-+-1-+-2-+-3-+-4-+-
G|-----------------------------------------------------------------|
D|-----------------------------------------------------------------|
A|-----------------------------------------------------------------|
E|-2-------------------------------0---------------------------5---|
B|-------------------------------------------------3---3-----------|

   1-+-2-+-3-+-4-+-1-+-2-+-3-+-4-+-1-+-2-+-3-+-4-+-1-+-2-+-3-+-4-+-
G|-----------------------------------------------------------------|
D|-----------------------------------------------------------------|
A|-----------------------------------------------------------------|
E|-2-------------------------------0-------------------------------|
B|-------------------------------------------------3---3-----------|

   1-+-2-+-3-+-4-+-1-+-2-+-3-+-4-+-1-+-2-+-3-+-4-+-1-+-2-+-3-+-4-+-
G|-----------------------------------------------------------------|
D|-----------------------------------------------------------------|
A|-----------------------------------------------------------------|
E|-2-------------------------------0---------------------------5---|
B|-------------------------------------------------3-3-3-----------|


Outro (3:09 to end)

   1-+-2-+-3-+-4-+-1-+-2-+-3-+-4-+-1-+-2-+-3-+-4-+-1-+-2-+-3-+-4-+-
G|-----------------------------------------------------------------|
D|-----------------------------------------------------------------|
A|-----------------------------------------------------------------|
E|-2---2-----2-----2---------------0---0-----0---------------------|
B|-------------------------------------------------3---------------|

   1-+-2-+-3-+-4-+-1-+-2-+-3-+-4-+-1-+-2-+-3-+-4-+-1-+-2-+-3-+-4-+-
G|-----------------------------------------------------------------|
D|-----------------------------------------------------------------|
A|-----------------------------------------------------------------|
E|-2-------------------------------0---------------------------5---|
B|-------------------------------------------------3---------------|

   1-+-2-+-3-+-4-+-1-+-2-+-3-+-4-+-1-+-2-+-3-+-4-+-1-+-2-+-3-+-4-+-
G|-----------------------------------------------------------------|
D|-----------------------------------------------------------------|
A|-----------------------------------------------------------------|
E|-2---------2-----2---------------0---------0---------------------|
B|-------------------------------------------------3---------------|

   1-+-2-+-3-+-4-+-1-+-2-+-3-+-4-+-1-+-2-+-3-+-4-+-1-+-2-+-3-+-4-+-
G|-----------------------------------------------------------------|
D|-----------------------------------------------------------------|
A|-----------------------------------------------------------------|
E|-2-------------------------------0-------------------------------|
B|-------------------------------------------------3-----3-----3---|


=========================================================================
Добавлено: 18.12.2017
Другие материалы по этой песне:
  • Аккорды и текст

Страница создана 18.12.2017
http://primanota.ru/lemolo/hold-light-chords.htm
Привет, Гость.
Предлагаем пройти революционный курс по гитаре.
Подарок от PrimaNota.Ru, забирай!