PrimaNota.ru - самый крупный в мире бесплатный архив песенных текстов, аккордов, табулатур и нот


Lemolo - Heart - бас-таба, видео

Регистрация Запомнить меня
Войти через:  Facebook Google Twitter Vk Yandex Mail.ru

Lemolo - Heart - бас-таба, видео

Печатать
Просмотров: 21
Новый альбом группы 'Черный Кузнец' по культовому сериалу 'Сверхъестественное'!
-------------------------------------------------------------------------
                             Lemolo - Heart
-------------------------------------------------------------------------
Tabbed by: boblentil

Tuning: Standard

Cello arranged for bass guitar


Bass rests from 0:00 to 0:24.


Verse (0:25 to 1:05)

   1-+-2-+-3-+-4-+-1-+-2-+-3-+-4-+-1-+-2-+-3-+-4-+-1-+-2-+-3-+-4-+-  \
G|-----------------------------------------------------------------| |
D|-0-----------2---4---------------7---~~~~~~~~----9---~~~~--------| |
A|-----------------------------------------------------------------| |
E|-----------------------------------------------------------------| |
                                                                     | 2x
   1-+-2-+-3-+-4-+-1-+-2-+-3-+-4-+-1-+-2-+-3-+-4-+-1-+-2-+-3-+-4-+-  |
G|-----------------------------------------------------------------| |
D|-0-----------2---4---------------2---~~~~--------0---------------| |
A|-----------------------------------------------------------------| |
E|-----------------------------------------------------------------| |
                                                                     /

Chorus 1 (1:06 to 1:35)

   1-+-2-+-3-+-4-+-1-+-2-+-3-+-4-+-1-+-2-+-3-+-4-+-1-+-2-+-3-+-4-+- 
G|14---------------------------------------------\11---~~~~-------/|
D|-----------------------------------------------------------------|
A|-----------------------------------------------------------------|
E|-----------------------------------------------------------------|

   1-+-2-+-3-+-4-+-1-+-2-+-3-+-4-+-1-+-2-+-3-+-4-+-1-+-2-+-3-+-4-+- 
G|14---------------------\11-------9--------------11---~~~~--------|
D|-----------------------------------------------------------------|
A|-----------------------------------------------------------------|
E|-----------------------------------------------------------------|

   1-+-2-+-3-+-4-+-1-+-2-+-3-+-4-+-1-+-2-+-3-+-4-+-1-+-2-+-3-+-4-+- 
G|14-----\11-------------------------------------------------------|
D|-----------------------------------------------------------------|
A|-----------------------------------------------------------------|
E|-----------------------------------------------------------------|


Repeat Verse (1:36 to 2:16)


Chorus 2 (2:16 to 2:36)

   1-+-2-+-3-+-4-+-1-+-2-+-3-+-4-+-1-+-2-+-3-+-4-+-1-+-2-+-3-+-4-+- 
G|14---------------------------------------------\11---~~~~-------/|
D|-----------------------------------------------------------------|
A|-----------------------------------------------------------------|
E|-----------------------------------------------------------------|

   1-+-2-+-3-+-4-+-1-+-2-+-3-+-4-+-1-+-2-+-3-+-4-+-1-+-2-+-3-+-4-+- 
G|14--------------\11--------------9--------------11---~~~~--------|
D|-----------------------------------------------------------------|
A|-----------------------------------------------------------------|
E|-----------------------------------------------------------------|


Outro (2:37 to end)

   1-+-2-+-3-+-4-+-1-+-2-+-3-+-4-+-1-+-2-+-3-+-4-+-1-+-2-+-3-+-4-+- 
G|---------------------------------9--------------11---~~~~--------|
D|-0---------------4-----------------------------------------------|
A|-----------------------------------------------------------------|
E|-----------------------------------------------------------------|

   1-+-2-+-3-+-4-+-1-+-2-+-3-+-4-+-1-+-2-+-3-+-4-+-1-+-2-+-3-+-4-+- 
G|---------------------------------9--------------11---~~~~--------|
D|-0-----------2---4-----------------------------------------------|
A|-----------------------------------------------------------------|
E|-----------------------------------------------------------------|

   1-+-2-+-3-+-4-+-1-+-2-+-3-+-4-+-1-+-2-+-3-+-4-+-1-+-2-+-3-+-4-+- 
G|14-----\11-------------------------------------------------------|
D|-----------------------------------------------------------------|
A|-----------------------------------------------------------------|
E|-----------------------------------------------------------------|


*************************************************************************

| /   Slide up
| \   Slide down
| ~   Vibrato

*************************************************************************

=========================================================================
Добавлено: 18.12.2017
Другие материалы по этой песне:
  • Аккорды и текст

Страница создана 18.12.2017
http://primanota.ru/lemolo/heart-chords.htm
Привет, Гость.
Предлагаем пройти революционный курс по гитаре.
Подарок от PrimaNota.Ru, забирай!