PrimaNota.ru - самый крупный в мире бесплатный архив песенных текстов, аккордов, табулатур и нот


Lemolo - Backslide - бас-таба, видео

Регистрация Запомнить меня
Войти через:  Facebook Google Twitter Vk Yandex Mail.ru

Lemolo - Backslide - бас-таба, видео

Печатать
Просмотров: 51
Новый альбом группы 'Черный Кузнец' по культовому сериалу 'Сверхъестественное'!
-----------------------------------------------------------------------
                          Lemolo - Backslide
-----------------------------------------------------------------------
Tabbed by: boblentil

Tuning: Standard


Intro (0:00 to 0:23)

   1-+-2-+-3-+-4-+-1-+-2-+-3-+-4-+-1-+-2-+-3-+-4-+-1-+-2-+-3-+-4-+-
G|-----------------------------------------------------------------|
D|-----------------------------------------------------------------| 2x
A|-----------------------------------------------------------------|
E|-2---------------0-----------------------------------------------|
B|---------------------------------3---------------0---------------|


Verse 1 (0:23 to 1:09)

   1-+-2-+-3-+-4-+-1-+-2-+-3-+-4-+-1-+-2-+-3-+-4-+-1-+-2-+-3-+-4-+-
G|-----------------------------------------------------------------|
D|-----------------------------------------------------------------| 3x
A|-----------------------------------------------------------0-----|
E|-2---------------0-----------------------------------------------|
B|---------------------------------3---------------0---------------|

   1-+-2-+-3-+-4-+-1-+-2-+-3-+-4-+-1-+-2-+-3-+-4-+-1-+-2-+-3-+-4-+-
G|-----------------------------------------------------------------|
D|-----------------------------------------------------------------|
A|-----------------------------------------------------------------|
E|-2---------------0-----------------------------------------------|
B|---------------------------------3---------------0---------------|


Chorus 1 (1:09 to 1:32)

   1-+-2-+-3-+-4-+-1-+-2-+-3-+-4-+-1-+-2-+-3-+-4-+-1-+-2-+-3-+-4-+-
G|-----------------------------------------------------------------|
D|-----------------------------------------------------------------| 2x
A|-----------------------------------------------------------------|
E|---------------------------------2-----------2---0---------0-----|
B|-3-----------3---0---------0-------------------------------------|


Verse 2 (1:32 to 2:30)

   1-+-2-+-3-+-4-+-1-+-2-+-3-+-4-+-1-+-2-+-3-+-4-+-1-+-2-+-3-+-4-+-
G|-----------------------------------------------------------------|
D|-----------------------------------------------------------------|
A|-----------------------------------------------------------------|
E|-2---------------0-----------------------------------------------|
B|---------------------------------3---------------0---------------|

   1-+-2-+-3-+-4-+-1-+-2-+-3-+-4-+-1-+-2-+-3-+-4-+-1-+-2-+-3-+-4-+-
G|-----------------------------------------------------------------|
D|-----------------------------------------------------------------| 3x
A|-----------------------------------------------------------0-----|
E|-2---------------0-----------------------------------------------|
B|---------------------------------3---------------0---------------|

   1-+-2-+-3-+-4-+-1-+-2-+-3-+-4-+-1-+-2-+-3-+-4-+-1-+-2-+-3-+-4-+-
G|-----------------------------------------------------------------|
D|-----------------------------------------------------------------|
A|-----------------------------------------------------------------|
E|-2---------------0-----------------------------------------------|
B|---------------------------------3---------------0---------------|


Chorus 2 (2:30 to 3:16)

   1-+-2-+-3-+-4-+-1-+-2-+-3-+-4-+-1-+-2-+-3-+-4-+-1-+-2-+-3-+-4-+-
G|-----------------------------------------------------------------|
D|-----------------------------------------------------------------| 2x
A|-----------------------------------------------------------------|
E|---------------------------------2-----------2---0---------0-----|
B|-3-----------3---0---------0-------------------------------------|

   1-+-2-+-3-+-4-+-1-+-2-+-3-+-4-+-1-+-2-+-3-+-4-+-1-+-2-+-3-+-4-+-
G|-----------------------------------------------------------------|
D|-----------------------------------------------------------------| 2x
A|-----------------------------------------------------------------|
E|---------------------------------2-----------2---0---------0-----|
B|-3---------3-3---0---------0-------------------------------------|


Outro (3:16 to end)

   1-+-2-+-3-+-4-+-1-+-2-+-3-+-4-+-1-+-2-+-3-+-4-+-1-+-2-+-3-+-4-+-
G|-----------------------------------------------------------------|
D|-----------------------------------------------------------------| 2x
A|-----------------------------------------------------------------|
E|-2---------------0-----------------------------------------------|
B|---------------------------------3---------------0---------------|


=======================================================================
Добавлено: 18.12.2017
Другие материалы по этой песне:
  • Аккорды и текст

Страница создана 18.12.2017
http://primanota.ru/lemolo/backslide-chords.htm
Привет, Гость.
Предлагаем пройти революционный курс по гитаре.
Подарок от PrimaNota.Ru, забирай!