PrimaNota.ru - самый крупный в мире бесплатный архив песенных текстов, аккордов, табулатур и нот


Lemmings - Say Lemmings - аккорды и текст, видео

Регистрация Запомнить меня
Войти через:  Facebook Google Twitter Vk Yandex Mail.ru

Lemmings - Say Lemmings - аккорды и текст, видео

Печатать
Просмотров: 118
Say Lemmings
Lemmings
This is the hard rockin' "Say Lemmings", the track that brought such a
monumental beginning to the Lemmings most influential album, 1960's "Thats Nice"

Chaz wrote and sang this song (also electic guitar), Otto play Bass and Herb
played drums.  John Paul played tambourine.

Paperlion Music


Heres the signature chorus riff:

------------------------------------------------------
------------------------------------------------------
------------------------------------------------------
---------------------7--10----------------------------
-------7--10---8--8-----------------------------------
-8--8-------------------------------------------------


Verse and Intro:

C/F

Define:

    C      F     G    F7   Bdim7
----0------1-----3----1------4---------------------------
----1------1-----3----4------3---------------------------
----0------2-----4----2------4---------------------------
----2------3-----5----1------3---------------------------
----3------3-----5----3------2---------------------------
-----------1-----3----1----------------------------------


Prechorus: G/F

to  chorus riff


The break down is the same as the verse (C/F) only with a slightly different
feel. (listen
to the tape)


Outro:   C/F/C/F/C/F/F/C----Bdim7(inaudible)



"We jump off cliffs and we're wonderful pets and I know you're
gonna love us yet"

				Chaz Lemming-1960
     
Добавлено: 20.08.2013
Другие материалы по этой песне:
  • Аккорды и текст

Страница создана 20.08.2013
http://primanota.ru/lemmings/say-lemmings-chords.htm
Привет, Гость.
Предлагаем пройти революционный курс по гитаре.
Подарок от PrimaNota.Ru, забирай!