PrimaNota.ru - самый крупный в мире бесплатный архив песенных текстов, аккордов, табулатур и нот


Lemmings - Northern Lullaby - таба, видео

Регистрация Запомнить меня
Войти через:  Facebook Google Twitter Vk Yandex Mail.ru

Lemmings - Northern Lullaby - таба, видео

Печатать
Просмотров: 82
Уроки эстрадного вокала в Санкт-Петербурге
The Lemmings
"Northern Lullaby"
Paperlion Publishing

This is a nice finger stlyle guitar arrangement for the song Northern 
Lullaby.  This is from
their self titled album. Otto wrote it and sang it, John Paul played piano. 
Herb played
drums and Chaz played bass.


let ring thoughout

Verse


(A)                                                             (Abmin)
--------0----------------------------0------------------------0-----4---
--2------------0-------------2--------------0-----------2---------------
-----2-----2-------2-----2-------2------2------2-----2-----2-----2------
--------2-------------2--------------2------------2-----------2---------
--0--------------------------0--------------------------0---------------
---------------0----------------------------0-----------------------4---

         (N.C.)
---------2p0--------2p0-----2p0-----2p0-----------
4-----4-------0---------0-------0-------0-----0---
---4----------------------------------------2-----
--------------------------------------------------
--------------------------------------------------
---------2----------2-------2-------2-------------
        (Fret with thumb)



Refrain

-------0------------------------------------------------
-2------------0-----2------3-----3--2p0--2-----------0--
----2-----2------0-----0------2-------------2------2----
-------2-------------------0-------------------2--------
-0------------------------------------------------------
--------------3--------------------------0--------------



Interlude & Ending



-0-------0---3---2---0---------0---0-0-----0-------0---3---2-------2---
-----1------------------3--0-------------------1---------------3--------
------------------------------------------------------------------------
-----------------0-------------2---2-----------------------0-------0----
-3-------3---------------------------------3-------3--------------------
------------------------------------------------------------------------



5---------------7------12h14p12--10--10\7--12-----------------
---8-------8-------------------------------------------------
-------9-----------------------------------------------------
-----------------------0-------------------------------------
---7-------7-------------------------------------------------
-------------------------------------------12-----------------
                                           * Harmonic on the Low E

     
Добавлено: 10.08.2013
Вам также может быть интересно:
Другие материалы по этой песне:
  • Аккорды и текст

Страница создана 10.08.2013
http://primanota.ru/lemmings/northern-lullaby-chords.htm
Привет, Гость.
Предлагаем пройти революционный курс по гитаре.
Подарок от PrimaNota.Ru, забирай!