PrimaNota.ru - самый крупный в мире бесплатный архив песенных текстов, аккордов, табулатур и нот


Lemmings - Im A Man - бас-таба, видео

Регистрация Запомнить меня
Войти через:  Facebook Google Twitter Vk Yandex Mail.ru

Lemmings - Im A Man - бас-таба, видео

Печатать
Просмотров: 63
I'm a Man
>From "That's Nice"
Paperlion Publishing Co.

The song has got to have one of the heaviest Bass Riffs of the all time and 
this is from way back in 1960! Mostly because of the descending figure over 
the second chord (C). The recording sounds almost like a fuzz bass, but of 
course they didn't even exist back then.  G unless you want to destroy your 
amp like their Bass player Otto did, just send it through a fuzz box.


Verse
------------------------------------------------------------
----------------7--5----------------------------------------
---------------------7-6-5------5--5----8----------3--5--5--
-----5---5--5---------------8----------------5--5-----------


Chorus
-------------------------------------------------------------
-------------------------------------------------------------
-------------------------------------------------------------
---0--0--0---0--0--0-0---0--0--0-0-0-0-0--0-0-3--5--0--0--0--

---------------------------------------------
---------------------------------------------
-----------------------------------3--5--5---
-0--0--0---0--0--0--0---0----5--5------------

Peace-email me with questions plmpbuddy@hotmail.com
     
Добавлено: 01.09.2013
Другие материалы по этой песне:
  • Аккорды и текст

Страница создана 01.09.2013
http://primanota.ru/lemmings/im-a-man-chords.htm
Привет, Гость.
Предлагаем пройти революционный курс по гитаре.
Подарок от PrimaNota.Ru, забирай!