PrimaNota.ru - самый крупный в мире бесплатный архив песенных текстов, аккордов, табулатур и нот


Lemmings - I Got A Secret - аккорды и текст, видео

Регистрация Запомнить меня
Войти через:  Facebook Google Twitter Vk Yandex Mail.ru

Lemmings - I Got A Secret - аккорды и текст, видео

Печатать
Просмотров: 122
I Got A Secret
Lemmings
  D     G     A   Em

--2---------------0----------------------------------------------
--3-----0-----2---0------------------------------------------------
--2-----0-----2---0------------------------------------------------
--0-----0-----2---2-----------------------------------------------
--------2-----0---2-----------------------------------------------
--------3---------0----------------------------------------------



Verse:


  D                   G  A

Well I'm a Lemming...



PreChorus:



(Fill1) Em     A

    Like Chess...




Refrain:

-----------------------------------------------------
-----------------------------------------------------
----------------------------2------------------------
-0---2------------0----2-----------------------------
---------0-------------------------------------------
-----------------------------------------------------


Fill1 (for prechorus)

----------------------
----------------------
----------------------
----------------------
-0--------------------
---3-2-0--------------


Paperlion Music
"Well I'm a Man, I'm a Lemming Man, and you know I don't like
surprises...so you can see why I'm no so happy when I catch you in
bed with that other Lemming."
     
Добавлено: 29.07.2013
Другие материалы по этой песне:
  • Аккорды и текст

Страница создана 29.07.2013
http://primanota.ru/lemmings/i-got-a-secret-chords.htm
Привет, Гость.
Предлагаем пройти революционный курс по гитаре.
Подарок от PrimaNota.Ru, забирай!