PrimaNota.ru - самый крупный в мире бесплатный архив песенных текстов, аккордов, табулатур и нот


Lemmings - Birds - аккорды и текст, видео

Регистрация Запомнить меня
Войти через:  Facebook Google Twitter Vk Yandex Mail.ru

Lemmings - Birds - аккорды и текст, видео

Печатать
Просмотров: 78
Birds
Lemmings
"Birds" By the Lemmings  (live version)

Play this one on an acoustic, thats gonna sound best unless you have
another person on
electric for the main riffs (fig.1 and fig 2) but it sounds fine with out
it. Play the
verse without a pick so the sound is softer. Fret the low F# with your
thumb in the main
riff. Not a hard song to play, though the little B7/Cmaj7/D/E  sequence in
the chorus
takes a few mintutes to get right. Believe it or not this song was written
by the bass
player! Without further ado....


Chords:    A7             D(I)           D(II)         C#m               Bm
============    ============   ===========    ===========      ===========
X-0-2-0-2-0     X-X-0-2-3-2    X-X-4-2-3-2    X-4-6-6-5-4      X-2-4-4-3-2

     B7                 G            C7M            E
===========       ===========    ===========   ===========
X-2-1-2-0-2       3-2-0-0-0-3    X-3-2-0-0-3   0-2-2-1-0-0

Fig. 1
---0------------------2--------------------
---2------------------2--------------------     * fret that with thumb
---0------------------2--------------------
---2---------------2--4--------------------  (4 times)
---0---0--0--4--4-----X----0--0--4--4--2---
----------------------2--------------------
                      *
Fig. 2

---0--0-0--0-0-0-0-------------------------------------
---2--2-2--2-2-2-2-------------------------------------
---0--0-0--0-0-0-0-------------------------------------  (4 times)
---2--2-2--2-2-2-2-------------------------------------
---0--0-0--0-0-0-0------2p0----------------------------
-------------------0-0------4-------------------------


The order goes like this:

Fig.1

Fig.2


Verse  (A7 and DII 3 1/2  times than: DII-G-DII  D-G-D

Fig.1

Fig.2


(2nd verse)


Chorus:

     A7            C#m         D         Bm
Lemming Birds....

     A7            C#m              D             B7 / C7M   / D / E



Fig.1

Fig.2


3rd Verse (same as first)

Chorus (fade out)


Great song from a pretty obscure band.
Write me with questions or requests for more lemmings i know most of 'em.
peace
     
Добавлено: 27.09.2013
Другие материалы по этой песне:
  • Аккорды и текст

Страница создана 02.09.2013
http://primanota.ru/lemmings/birds-chords.htm
Привет, Гость.
Предлагаем пройти революционный курс по гитаре.
Подарок от PrimaNota.Ru, забирай!