PrimaNota.ru - самый крупный в мире бесплатный архив песенных текстов, аккордов, табулатур и нот


Lehrer Oded - Slichot - таба, видео

Регистрация Запомнить меня
Войти через:  Facebook Google Twitter Vk Yandex Mail.ru

Lehrer Oded - Slichot - таба, видео

Печатать
Просмотров: 73
		   Author/Artist: Oded Lehrer
Title: Slichot
Transcribed by: Carlos Ben-Ari
Email: carlos10@netvision.net.il

Classical guitar arrangement for his pupils, by Carlos Ben-Ari. The song was sung by Yehudith Ravitz and is an Israeli standard.

-8-------7-5-|-3-------1---|-0---0-------|-------------|-8-7-5---3-1-|-0------
-5---5-------|-3---3-----3-|-0---0---3---|-1-0---------|-5-----5-----|-3---3--
-5-5---5-----|-2-2---2-----|-1---1---4---|-2---2-------|-5-----5-----|-2---4--
-------------|-0-----------|-------------|-2-----2-----|-------------|---0----
-0-----------|-------------|-------------|-0-------3-2-|-0-----------|--------
-------------|-------------|---0---0---0-|-------------|-------------|--------
 Am            Dm            E7            Am            Am             Dm    

---0---|-1-----------|-0------------|-----0----1--|-3---5---1--|-0---0------|-
---1---|-0---5---4---|-1------0-1-2-|-3-----------|-0---0---0--|-1---1---3--|-
-------|-1---5---4---|-2----2-------|-----0----2--|-0---0---0--|-0---0---2--|-
-0---0-|-------------|--------------|-3-----------|------------|---------3--|-
-------|-------------|-0------------|-------------|-----0---2--|-3---3---2--|-
-------|-0-----------|--------------|-------------|-3----------|------------|-
         E7            Am             Dm            G7           C       B*   

------------|-----------0-|-3---1-------|-------------|-0------------|-----0--
-1---0------|---0-1---3---|-3---3---3---|-5---6---3---|-1------0-1-2-|-3------
-2---1------|-2-----------|-2---2---2---|-5---7---4---|-2----2-------|-----0--
-3---2------|-2-----------|-0---0---3---|-------------|--------------|-3------
------------|-0-----0-----|---------2---|-------------|-0------------|--------
-1-------0--|-------------|-------------|---0---0---0-|--------------|--------
 F   E7       Am            Dm      B*    E7            Am             Dm     

-1--|-3---5---1---|-0---0------|-----------|-----------0-|-3---1-------|-0----
----|-0---0---0---|-1---1---3--|-1---0-----|---0-1---3---|-3---3---3---|-1----
-2--|-0---0---0---|-0---0---2--|-2---1-----|-2-----------|-2---2---2---|-2----
----|-------------|---------3--|-3---2-----|-2-----------|-0---0---3---|-3----
----|-----0---2---|-3---3---2--|-----------|-0-----0-----|---------2---|------
----|-3-----------|------------|-1------0--|-------------|-------------|------
      G7            C       B*   F   E       Am            Dm      B*    F    

--------|---------------|-----0---5---|-8-------5-0-|-1-------3-5-|-7----5----
-1---0--|---------------|-----1-----5-|-5---5-------|-3---3-------|------0----
-2---1--|-2-------------|-----2-------|-5-5---5-----|-2-2---2-----|-7----0----
-1---0--|-2----2--------|-----2-------|-------------|-0-----------|-5---------
-2------|-0---------3---|-0-----------|-0-----------|-------------|------0----
-----0--|---------------|-------------|-------------|-------------|-----------
 B7  E7   Am              Am            Am             Dm           G7        

-3--|-1---0---1-3-|-5-------1-0-|-------------|-------------|-----------5---|-
-0--|-1---1-------|-6-6---6-----|-4-------0---|-------------|-1-----------5-|-
-0--|-0---0-------|-7---7-------|-2---2-----2-|-1---2---4---|-2----2--------|-
----|-------------|-0-----------|-4-4---4-----|---0---0---0-|-2----2--------|-
-2--|-3---3-------|-------------|-2-----------|-------------|-0----0--------|-
----|-------------|-------------|-------------|-0---2---4---|---------------|-
      C             Dm            B7            E7            Am              

-8-------5-0-|-1-------3-5-|-7---5---3--|-1---0---1-3-|-5-------7-8-|-10------
-5---5-------|-3---3-------|-----0---0--|-1---1-------|-6---6-------|-7---7---
-5-5---5-----|-2-2---2-----|-7---0---0--|-0---0-------|-7-7---6-----|-7-7-----
-------------|-0-----------|-5----------|-------------|-0-----------|---------
-0-----------|-------------|-----0---2--|-3---3-------|-------------|---------
-------------|-------------|------------|-------------|-------------|-7-------
 Am            Dm            G7           C             Dm            Bm      

---7-5-|-4-----5-7--|-5-------8-8-|-|-----------------------------------------
-------|-3---3---5--|-5---5-------|-|-----------------------------------------
-7-----|-4-4-----7--|-5---5-------|-|-----------------------------------------
-------|------------|-------------|-|-----------------------------------------
-------|------------|-0-----------|-|-----------------------------------------
-------|-0-------0--|-------------|-|-----------------------------------------
         E7           Am      D.C.   (B* is Bm7b5, B half diminished)         
     
Добавлено: 27.10.2013
Другие материалы по этой песне:
  • Аккорды и текст

Страница создана 10.08.2013
http://primanota.ru/lehrer-oded/slichot-chords.htm
Привет, Гость.
Предлагаем пройти революционный курс по гитаре.
Подарок от PrimaNota.Ru, забирай!