PrimaNota.ru - самый крупный в мире бесплатный архив песенных текстов, аккордов, табулатур и нот


Legs Diamond - Stage Fright - таба, видео

Регистрация Запомнить меня
Войти через:  Facebook Google Twitter Vk Yandex Mail.ru

Legs Diamond - Stage Fright - таба, видео

Печатать
Просмотров: 123
****************************************************************************
Legs Diamond Official Site

http://legsdiamond.com/
****************************************************************************

----------------------------------------------------------------------------
                             Stage Fright - Legs Diamond
----------------------------------------------------------------------------

Tabbed by:BOBTHEWEAZEL
Email:captain-jesus@hotmail.com

Tuning:Standard

Sorry, But I Couldn't Figure Out The Solo. Hopefully Some One Else Will Post It.

Note:Times Are Approximate.

Note:Lyrics Do Not Correspond With Notes 

INTRO

00:00
e|-----------------------------------------|
B|-----------------------------------------|
G|-----------------------------------------|
D|---------4---------4---------4---------2-|
A|-----0-2-2-----0-2-2-----0-2-2-----0-2-0-|
E|-2-4-------2-4-------2-4-------2-4-------|

00:08
e|-------------------------------------------|
B|-------------------------------------------|
G|-------------------------------------------|
D|---------4---------4---------4-------------|
A|-----0-2-2-----0-2-2-----0-2-2-----------2-|
E|-2-4-------2-4-------2-4-------2-4-5-4-2-0-|


VERSE #1

  Well, I Get...
00:16
e|-----------------------------------------|
B|-----------------------------------------|
G|-----------------------------------------|
D|---------4---------4---------4---------2-|
A|-----0-2-2-----0-2-2-----0-2-2-----0-2-0-|
E|-2-4-------2-4-------2-4-------2-4-------|

  But The Way...
00:24
e|-------------------------------------------|
B|-------------------------------------------|
G|-------------------------------------------|
D|---------4---------4---------4-------------|
A|-----0-2-2-----0-2-2-----0-2-2-----------2-|
E|-2-4-------2-4-------2-4-------2-4-5-4-2-0-|

  So I Get...
00:32
e|-----------------------------------------|
B|-----------------------------------------|
G|-----------------------------------------|
D|---------4---------4---------4---------2-|
A|-----0-2-2-----0-2-2-----0-2-2-----0-2-0-|
E|-2-4-------2-4-------2-4-------2-4-------|

  It's Just Part...
00:40
e|-------------------------------------------|
B|-------------------------------------------|
G|-------------------------------------------|
D|---------4---------4---------4-------------|
A|-----0-2-2-----0-2-2-----0-2-2-----------2-|
E|-2-4-------2-4-------2-4-------2-4-5-4-2-0-|


CHORUS #1
  
  Stagefright
00:48
e|---------------------------------------------|
B|---------------------------------------------|
G|---------------------------------------------|
D|-------77-4-------77-4-------77-4-------77-4-|
A|-77-22-55-2-77-22-55-2-77-22-55-2-77-22-55-2-|
E|-55-00------55-00------55-00------55-00------|


Verse#2

01:03
e|-----------------------------------------|
B|-----------------------------------------|
G|-----------------------------------------|
D|---------4---------4---------4---------2-|
A|-----0-2-2-----0-2-2-----0-2-2-----0-2-0-|
E|-2-4-------2-4-------2-4-------2-4-------|

  Well, How Can...
01:11
e|-----------------------------------------|
B|-----------------------------------------|
G|-----------------------------------------|
D|---------4---------4---------4---------2-|
A|-----0-2-2-----0-2-2-----0-2-2-----0-2-0-|
E|-2-4-------2-4-------2-4-------2-4-------|

  Got To Try...
01:19
e|-------------------------------------------|
B|-------------------------------------------|
G|-------------------------------------------|
D|---------4---------4---------4-------------|
A|-----0-2-2-----0-2-2-----0-2-2-----------2-|
E|-2-4-------2-4-------2-4-------2-4-5-4-2-0-|

  Well, For Ages...
01:27
e|-----------------------------------------|
B|-----------------------------------------|
G|-----------------------------------------|
D|---------4---------4---------4---------2-|
A|-----0-2-2-----0-2-2-----0-2-2-----0-2-0-|
E|-2-4-------2-4-------2-4-------2-4-------|

  If You Can't...
01:35
e|-------------------------------------------|
B|-------------------------------------------|
G|-------------------------------------------|
D|---------4---------4---------4-------------|
A|-----0-2-2-----0-2-2-----0-2-2-----------2-|
E|-2-4-------2-4-------2-4-------2-4-5-4-2-0-|


CHORUS #2

  Stagefright
01:43
e|---------------------------------------------|
B|---------------------------------------------|
G|---------------------------------------------|
D|-------77-4-------77-4-------77-4-------77-4-|
A|-77-22-55-2-77-22-55-2-77-22-55-2-77-22-55-2-|
E|-55-00------55-00------55-00------55-00------|


RHYTHM FOR SOLO

02:05-03:27
e|-----------------|
B|-----------------|
G|-----------------|
D|---2-444-7-6-444-|
A|-4-0-222-5-4-222-|
E|-2---------------|

03:28
e|------|
B|------|
G|------|
D|-44-2-|
A|-22-0-|
E|------|


VERSE #3

03:31
e|-----------------------------------------|
B|-----------------------------------------|
G|-----------------------------------------|
D|---------4---------4---------4---------2-|
A|-----0-2-2-----0-2-2-----0-2-2-----0-2-0-|
E|-2-4-------2-4-------2-4-------2-4-------|

  Well, I Get...
03:39
e|-----------------------------------------|
B|-----------------------------------------|
G|-----------------------------------------|
D|---------4---------4---------4---------2-|
A|-----0-2-2-----0-2-2-----0-2-2-----0-2-0-|
E|-2-4-------2-4-------2-4-------2-4-------|

  But The Way...
03:47
e|-------------------------------------------|
B|-------------------------------------------|
G|-------------------------------------------|
D|---------4---------4---------4-------------|
A|-----0-2-2-----0-2-2-----0-2-2-----------2-|
E|-2-4-------2-4-------2-4-------2-4-5-4-2-0-|

  So I Get...
03:55
e|-----------------------------------------|
B|-----------------------------------------|
G|-----------------------------------------|
D|---------4---------4---------4---------2-|
A|-----0-2-2-----0-2-2-----0-2-2-----0-2-0-|
E|-2-4-------2-4-------2-4-------2-4-------|

  It's Just...
04:03
e|---------------------------------------------|
B|---------------------------------------------|
G|---------------------------------------------|
D|---------4-----------4---------4-------------|
A|-----0-2-2-----0-2-0-2-----0-2-2-----------2-|
E|-2-4-------2-4---------2-4-------2-4-5-4-2-0-|


CHORUS #3

  Stagefright
04:11
e|---------------------------------------------|
B|---------------------------------------------|
G|---------------------------------------------|
D|-------77-4-------77-4-------77-4-------77-4-|
A|-77-22-55-2-77-22-55-2-77-22-55-2-77-22-55-2-|
E|-55-00------55-00------55-00------55-00------|

  Stagefright
04:27
e|---------------------------------------------|
B|---------------------------------------------|
G|---------------------------------------------|
D|-------77-4-------77-4-------77-4-------77-4-|
A|-77-22-55-2-77-22-55-2-77-22-55-2-77-22-55-2-|
E|-55-00------55-00------55-00------55-00------|


EXTRO

04:42
e|-------------|
B|-------------|
G|-------------|
D|-2~---4~---4-|
A|-0~---2~---2-|
E|-------------|

| b  Bend To (Push String Up Or Down Within Same Fret To Desired Note)
| r  Release To (Let String Play From A Bent Position To An Unbent Position)
| /  Slide Up (Slide From Current Note To Next Note Or Toward Guitar Body)
| \  Slide Down (Slide From Current Note To Next Note Or Toward Guitar Head)
| h  Hammer-On (Press A Finger Down Quick And Hard To Achieve Next Note)
| p  Pull-Off (Pull Off And Slightly Down To Let Next Note Ring)
| ~  Hold Note (Let Current Note Ring, Vibrato Might Be Assumed)
| +  Harmonic (Lightly Touch String Over A Sweet Spot And Pluck)
| x  Rhythmic Chuck Note (Touch Strings, Dont Push To Board, Strum)
| v  Vibrato (Bend String Up And Down Rapidly, Very Slight Bends)
Добавлено: 04.07.2012
Вам также может быть интересно:
Другие материалы по этой песне:
  • Аккорды и текст

Страница создана 04.07.2012
http://primanota.ru/legs-diamond/stage-fright-chords.htm
Привет, Гость.
Предлагаем пройти революционный курс по гитаре.
Подарок от PrimaNota.Ru, забирай!