PrimaNota.ru - самый крупный в мире бесплатный архив песенных текстов, аккордов, табулатур и нот


legitimate business - 80 On 80 - таба, видео

Регистрация Запомнить меня
Войти через:  Facebook Google Twitter Vk Yandex Mail.ru

legitimate business - 80 On 80 - таба, видео

Печатать
Просмотров: 51
                                         80 On 80                                   
                                   Legitimate Business


Tabbed By:Dominic_HD
Aquí esta la canción completa en guitarra.
if you need some tab or if you have questions send me a message.



Guitarra Líder:     Intro:
      E    E    S   S   S   S  S S S E  S S S  
E||-------------------------------------------|
B||--(7)--(7)--(7)-(7)-(7)-(7)-8-8-8-7--7-7-7-|
G||---7----7----7---7---7---7--7-7-7-7--7-7-7-|
D||---7----7----7---7---7---7--5-5-5-4--4-4-4-|
A||---5----5----5---5---5---5-----------------|
E||-------------------------------------------|


  PM PM                                                    
  S  S   E    S   S   S   S   S   S   S   E    S   S   S   
----------------------------------------------------------|
--------(5)--(5)-(5)-(5)-(5)-(5)-(5)-(5)-(5)--(5)-(5)-(5)-|
---------6----6---6---6---6---7---7---7---6----6---6---6--|
--7--7---7----7---7---7---7---7---7---7---7----7---7---7--|
--7--7---7----7---7---7---7---7---7---7---7----7---7---7--|
--5--5---5----5---5---5---5---5---5---5---5----5---5---5--|


  E  S S S S S S S S S S S S S S    S S S S S S S S S S S S S S S S  
---------------------------------|----------------------------------|
---------------------------------|----------------------------------|
---------------------------------|----------------------------------|
--4--4-4-4-4-4-4-5-5-5-5-5-5-5-5-|--7-7-7-7-7-7-7-7-7-7-7-7-7-7-7-7-|
--4--4-4-4-4-4-4-5-5-5-5-5-5-5-5-|--7-7-7-7-7-7-7-7-7-7-7-7-7-7-7-7-|
--2--2-2-2-2-2-2-3-3-3-3-3-3-3-3-|--5-5-5-5-5-5-5-5-5-5-5-5-5-5-5-5-|


   E    E    S   S   S   S  S S S E  S S S  
-------------------------------------------|
--(7)--(7)--(7)-(7)-(7)-(7)-8-8-8-7--7-7-7-|
---7----7----7---7---7---7--7-7-7-7--7-7-7-|
---7----7----7---7---7---7--5-5-5-4--4-4-4-|
---5----5----5---5---5---5-----------------|
-------------------------------------------|


  PM PM                                                    
  S  S   E    S   S   S   S   S   S   S   E    S   S   S   
----------------------------------------------------------|
--------(5)--(5)-(5)-(5)-(5)-(5)-(5)-(5)-(5)--(5)-(5)-(5)-|
---------6----6---6---6---6---7---7---7---6----6---6---6--|
--7--7---7----7---7---7---7---7---7---7---7----7---7---7--|
--7--7---7----7---7---7---7---7---7---7---7----7---7---7--|
--5--5---5----5---5---5---5---5---5---5---5----5---5---5--|


  E  S S S S S S S S S S S S S S    S S S S S S S S S S S S S S S S  
---------------------------------|----------------------------------|
---------------------------------|----------------------------------|
---------------------------------|----------------------------------|
--4--4-4-4-4-4-4-5-5-5-5-5-5-5-5-|--7-7-7-7-7-7-7-7-7-7-7-7-7-7-7-7-|
--4--4-4-4-4-4-4-5-5-5-5-5-5-5-5-|--7-7-7-7-7-7-7-7-7-7-7-7-7-7-7-7-|
--2--2-2-2-2-2-2-3-3-3-3-3-3-3-3-|--5-5-5-5-5-5-5-5-5-5-5-5-5-5-5-5-|

Verso I:

  S S S S S S S S S S S S S S S S    S S S S S S S S S S S S S S S S  
----------------------------------|----------------------------------|
--x-7-x-7-x-7-x-7-x-7-x-7-x-7-x-7-|--7-7-x-7-x-7-x-7-x-7-x-7-x-7-x-7-|
--x-7-x-7-x-7-x-7-x-7-x-7-x-7-x-7-|--7-7-x-7-x-7-x-7-x-7-x-7-x-7-x-7-|
--x-7-x-7-x-7-x-7-x-7-x-7-x-7-x-7-|--9-9-x-9-x-9-x-9-x-9-x-9-x-9-x-9-|
--x-5-x-5-x-5-x-5-x-5-x-5-x-5-x-5-|--9-9-x-9-x-9-x-9-x-9-x-9-x-9-x-9-|
----------------------------------|--7-7-x-7-x-7-x-7-x-7-x-7-x-7-x-7-|


  S S S S S S S S S S S S S S S S    S S S S S S S S S S S S S S S S  
--7-7-x-7-x-7-x-7-x-7-x-7-x-7-x-7-|----------------------------------|
--8-8-x-8-x-8-x-8-x-8-x-8-x-8-x-8-|--5-5-x-5-x-5-x-5-x-5-x-5-x-5-x-5-|
--9-9-x-9-x-9-x-9-x-9-x-9-x-9-x-9-|--6-6-x-6-x-6-x-6-x-6-x-6-x-6-x-6-|
--9-9-x-9-x-9-x-9-x-9-x-9-x-9-x-9-|--7-7-x-7-x-7-x-7-x-7-x-7-x-7-x-7-|
--7-7-x-7-x-7-x-7-x-7-x-7-x-7-x-7-|--7-7-x-7-x-7-x-7-x-7-x-7-x-7-x-7-|
----------------------------------|--5-5-x-5-x-5-x-5-x-5-x-5-x-5-x-5-|


  E  S S S S S S S S S S S S S S    S S S S S S S S S S S S S S S S  
---------------------------------|----------------------------------|
--7--x-7-x-7-x-7-x-7-x-7-x-7-x-7-|--7-7-x-7-x-7-x-7-x-7-x-7-x-7-x-7-|
--7--x-7-x-7-x-7-x-7-x-7-x-7-x-7-|--7-7-x-7-x-7-x-7-x-7-x-7-x-7-x-7-|
--7--x-7-x-7-x-7-x-7-x-7-x-7-x-7-|--9-9-x-9-x-9-x-9-x-9-x-9-x-9-x-9-|
--5--x-5-x-5-x-5-x-5-x-5-x-5-x-5-|--9-9-x-9-x-9-x-9-x-9-x-9-x-9-x-9-|
---------------------------------|--7-7-x-7-x-7-x-7-x-7-x-7-x-7-x-7-|


  S S S S S S S S S S S S S S S S    S S S S S S S S S S S S S S S S  
--7-7-x-7-x-7-x-7-x-7-x-7-x-7-x-7-|----------------------------------|
--8-8-x-8-x-8-x-8-x-8-x-8-x-8-x-8-|--5-5-x-5-x-5-x-5-x-5-x-5-x-5-x-5-|
--9-9-x-9-x-9-x-9-x-9-x-9-x-9-x-9-|--6-6-x-6-x-6-x-6-x-6-x-6-x-6-x-6-|
--9-9-x-9-x-9-x-9-x-9-x-9-x-9-x-9-|--7-7-x-7-x-7-x-7-x-7-x-7-x-7-x-7-|
--7-7-x-7-x-7-x-7-x-7-x-7-x-7-x-7-|--7-7-x-7-x-7-x-7-x-7-x-7-x-7-x-7-|
----------------------------------|--5-5-x-5-x-5-x-5-x-5-x-5-x-5-x-5-|

Coro I:

   E    E    S   S   S   S  S S S E  S S S  
-------------------------------------------|
--(7)--(7)--(7)-(7)-(7)-(7)-8-8-8-7--7-7-7-|
---7----7----7---7---7---7--7-7-7-7--7-7-7-|
---7----7----7---7---7---7--5-5-5-4--4-4-4-|
---5----5----5---5---5---5-----------------|
-------------------------------------------|


  PM PM                                                    
  S  S   E    S   S   S   S   S   S   S   E    S   S   S   
----------------------------------------------------------|
--------(5)--(5)-(5)-(5)-(5)-(5)-(5)-(5)-(5)--(5)-(5)-(5)-|
---------6----6---6---6---6---7---7---7---6----6---6---6--|
--7--7---7----7---7---7---7---7---7---7---7----7---7---7--|
--7--7---7----7---7---7---7---7---7---7---7----7---7---7--|
--5--5---5----5---5---5---5---5---5---5---5----5---5---5--|


  E  S S S S S S S S S S S S S S    S S S S S S S S S S S S S S S S  
---------------------------------|----------------------------------|
---------------------------------|----------------------------------|
---------------------------------|----------------------------------|
--4--4-4-4-4-4-4-5-5-5-5-5-5-5-5-|--7-7-7-7-7-7-7-7-7-7-7-7-7-7-7-7-|
--4--4-4-4-4-4-4-5-5-5-5-5-5-5-5-|--7-7-7-7-7-7-7-7-7-7-7-7-7-7-7-7-|
--2--2-2-2-2-2-2-3-3-3-3-3-3-3-3-|--5-5-5-5-5-5-5-5-5-5-5-5-5-5-5-5-|


   E    E    S   S   S   S  S S S E  S S S  
-------------------------------------------|
--(7)--(7)--(7)-(7)-(7)-(7)-8-8-8-7--7-7-7-|
---7----7----7---7---7---7--7-7-7-7--7-7-7-|
---7----7----7---7---7---7--5-5-5-4--4-4-4-|
---5----5----5---5---5---5-----------------|
-------------------------------------------|


  PM PM                                                    
  S  S   E    S   S   S   S   S   S   S   E    S   S   S   
----------------------------------------------------------|
--------(5)--(5)-(5)-(5)-(5)-(5)-(5)-(5)-(5)--(5)-(5)-(5)-|
---------6----6---6---6---6---7---7---7---6----6---6---6--|
--7--7---7----7---7---7---7---7---7---7---7----7---7---7--|
--7--7---7----7---7---7---7---7---7---7---7----7---7---7--|
--5--5---5----5---5---5---5---5---5---5---5----5---5---5--|


  E  S S S S S S S S S S S S S S    S S S S S S S S S S S S S S S S  
---------------------------------|----------------------------------|
---------------------------------|----------------------------------|
---------------------------------|----------------------------------|
--4--4-4-4-4-4-4-5-5-5-5-5-5-5-5-|--7-7-7-7-7-7-7-7-7-7-7-7-7-7-7-7-|
--4--4-4-4-4-4-4-5-5-5-5-5-5-5-5-|--7-7-7-7-7-7-7-7-7-7-7-7-7-7-7-7-|
--2--2-2-2-2-2-2-3-3-3-3-3-3-3-3-|--5-5-5-5-5-5-5-5-5-5-5-5-5-5-5-5-|


   E    E    S   S   S   S  S S S E  S S S  
-------------------------------------------|
--(7)--(7)--(7)-(7)-(7)-(7)-8-8-8-7--7-7-7-|
---7----7----7---7---7---7--7-7-7-7--7-7-7-|
---7----7----7---7---7---7--5-5-5-4--4-4-4-|
---5----5----5---5---5---5-----------------|
-------------------------------------------|


  PM PM                                                    
  S  S   E    S   S   S   S   S   S   S   E    S   S   S   
----------------------------------------------------------|
--------(5)--(5)-(5)-(5)-(5)-(5)-(5)-(5)-(5)--(5)-(5)-(5)-|
---------6----6---6---6---6---7---7---7---6----6---6---6--|
--7--7---7----7---7---7---7---7---7---7---7----7---7---7--|
--7--7---7----7---7---7---7---7---7---7---7----7---7---7--|
--5--5---5----5---5---5---5---5---5---5---5----5---5---5--|


  E  S S S S S S S S S S S S S S    S S S S S S S S S S S S S S S S  
---------------------------------|----------------------------------|
---------------------------------|----------------------------------|
---------------------------------|----------------------------------|
--4--4-4-4-4-4-4-5-5-5-5-5-5-5-5-|--7-7-7-7-7-7-7-7-7-7-7-7-7-7-7-7-|
--4--4-4-4-4-4-4-5-5-5-5-5-5-5-5-|--7-7-7-7-7-7-7-7-7-7-7-7-7-7-7-7-|
--2--2-2-2-2-2-2-3-3-3-3-3-3-3-3-|--5-5-5-5-5-5-5-5-5-5-5-5-5-5-5-5-|


   E    E    S   S   S   S  S S S E  S S S  
-------------------------------------------|
--(7)--(7)--(7)-(7)-(7)-(7)-8-8-8-7--7-7-7-|
---7----7----7---7---7---7--7-7-7-7--7-7-7-|
---7----7----7---7---7---7--5-5-5-4--4-4-4-|
---5----5----5---5---5---5-----------------|
-------------------------------------------|


  PM PM                                                    
  S  S   E    S   S   S   S   S   S   S   E    S   S   S   
----------------------------------------------------------|
--------(5)--(5)-(5)-(5)-(5)-(5)-(5)-(5)-(5)--(5)-(5)-(5)-|
---------6----6---6---6---6---7---7---7---6----6---6---6--|
--7--7---7----7---7---7---7---7---7---7---7----7---7---7--|
--7--7---7----7---7---7---7---7---7---7---7----7---7---7--|
--5--5---5----5---5---5---5---5---5---5---5----5---5---5--|


  E  S S S S S S S S S S S S S S    S S S S S S S S S S S S S S S S  
---------------------------------|----------------------------------|
---------------------------------|----------------------------------|
---------------------------------|----------------------------------|
--4--4-4-4-4-4-4-5-5-5-5-5-5-5-5-|--7-7-7-7-7-7-7-7-7-7-7-7-7-7-7-7-|
--4--4-4-4-4-4-4-5-5-5-5-5-5-5-5-|--7-7-7-7-7-7-7-7-7-7-7-7-7-7-7-7-|
--2--2-2-2-2-2-2-3-3-3-3-3-3-3-3-|--5-5-5-5-5-5-5-5-5-5-5-5-5-5-5-5-|

Verso II:

  S S S S S S S S S S S S S S S S    S S S S S S S S S S S S S S S S  
----------------------------------|--7-7-x-7-x-7-x-7-x-7-x-7-x-7-x-7-|
--x-7-x-7-x-7-x-7-x-7-x-7-x-7-x-7-|--7-7-x-7-x-7-x-7-x-7-x-7-x-7-x-7-|
--x-7-x-7-x-7-x-7-x-7-x-7-x-7-x-7-|--7-7-x-7-x-7-x-7-x-7-x-7-x-7-x-7-|
--x-7-x-7-x-7-x-7-x-7-x-7-x-7-x-7-|--9-9-x-9-x-9-x-9-x-9-x-9-x-9-x-9-|
--x-5-x-5-x-5-x-5-x-5-x-5-x-5-x-5-|--9-9-x-9-x-9-x-9-x-9-x-9-x-9-x-9-|
----------------------------------|----------------------------------|


  S S S S S S S S S S S S S S S S    S S S S S S S S S S S S S S S S  
--7-7-x-7-x-7-x-7-7-7-x-7-x-7-x-7-|----------------------------------|
--8-8-x-8-x-8-x-8-8-8-x-8-x-8-x-8-|--5-5-x-5-x-5-x-5-x-5-x-5-x-5-x-5-|
--9-9-x-9-x-9-x-9-9-9-x-9-x-9-x-9-|--6-6-x-6-x-6-x-6-x-6-x-6-x-6-x-6-|
--9-9-x-9-x-9-x-9-9-9-x-9-x-9-x-9-|--7-7-x-7-x-7-x-7-x-7-x-7-x-7-x-7-|
--7-7-x-7-x-7-x-7-7-7-x-7-x-7-x-7-|--7-7-x-7-x-7-x-7-x-7-x-7-x-7-x-7-|
----------------------------------|--5-5-x-5-x-5-x-5-x-5-x-5-x-5-x-5-|


  E  S S S S S S S S S S S S S S    S S S S S S S S S S S S S S S S  
---------------------------------|----------------------------------|
--7--x-7-x-7-x-7-x-7-x-7-x-7-x-7-|--7-7-x-7-x-7-x-7-x-7-x-7-x-7-x-7-|
--7--x-7-x-7-x-7-x-7-x-7-x-7-x-7-|--7-7-x-7-x-7-x-7-x-7-x-7-x-7-x-7-|
--7--x-7-x-7-x-7-x-7-x-7-x-7-x-7-|--9-9-x-9-x-9-x-9-x-9-x-9-x-9-x-9-|
--5--x-5-x-5-x-5-x-5-x-5-x-5-x-5-|--9-9-x-9-x-9-x-9-x-9-x-9-x-9-x-9-|
---------------------------------|--7-7-x-7-x-7-x-7-x-7-x-7-x-7-x-7-|


  S S S S S S S S S S S S S S S S    S S S S S S S S S S S S S S S S  
--7-7-x-7-x-7-x-7-x-7-x-7-x-7-x-7-|----------------------------------|
--8-8-x-8-x-8-x-8-x-8-x-8-x-8-x-8-|--5-5-x-5-x-5-x-5-x-5-x-5-x-5-x-5-|
--9-9-x-9-x-9-x-9-x-9-x-9-x-9-x-9-|--6-6-x-6-x-6-x-6-x-6-x-6-x-6-x-6-|
--9-9-x-9-x-9-x-9-x-9-x-9-x-9-x-9-|--7-7-x-7-x-7-x-7-x-7-x-7-x-7-x-7-|
--7-7-x-7-x-7-x-7-x-7-x-7-x-7-x-7-|--7-7-x-7-x-7-x-7-x-7-x-7-x-7-x-7-|
----------------------------------|--5-5-x-5-x-5-x-5-x-5-x-5-x-5-x-5-|

Coro II:

   E    E    S   S   S   S  S S S E  S S S  
-------------------------------------------|
--(7)--(7)--(7)-(7)-(7)-(7)-8-8-8-7--7-7-7-|
---7----7----7---7---7---7--7-7-7-7--7-7-7-|
---7----7----7---7---7---7--5-5-5-4--4-4-4-|
---5----5----5---5---5---5-----------------|
-------------------------------------------|


  PM PM                                                    
  S  S   E    S   S   S   S   S   S   S   E    S   S   S   
----------------------------------------------------------|
--------(5)--(5)-(5)-(5)-(5)-(5)-(5)-(5)-(5)--(5)-(5)-(5)-|
---------6----6---6---6---6---7---7---7---6----6---6---6--|
--7--7---7----7---7---7---7---7---7---7---7----7---7---7--|
--7--7---7----7---7---7---7---7---7---7---7----7---7---7--|
--5--5---5----5---5---5---5---5---5---5---5----5---5---5--|


  E  S S S S S S S S S E  S S S    S S S S S S S S S S S S S S S S  
--------------------------------|----------------------------------|
--------------------------------|----------------------------------|
-----------------7-7-7-7--7-7-7-|----------------------------------|
--4--4-4-4-4-4-4-5-5-5-4--4-4-4-|--7-7-7-7-7-7-7-7-7-7-7-7-7-7-7-7-|
--4--4-4-4-4-4-4-5-5-5-5--5-5-5-|--7-7-7-7-7-7-7-7-7-7-7-7-7-7-7-7-|
--2--2-2-2-2-2-2----------------|--5-5-5-5-5-5-5-5-5-5-5-5-5-5-5-5-|


   E    E    S   S   S   S  S S S E  S S S  
-------------------------------------------|
--(7)--(7)--(7)-(7)-(7)-(7)-8-8-8-7--7-7-7-|
---7----7----7---7---7---7--7-7-7-7--7-7-7-|
---7----7----7---7---7---7--5-5-5-4--4-4-4-|
---5----5----5---5---5---5-----------------|
-------------------------------------------|


  PM PM                                                    
  S  S   E    S   S   S   S   S   S   S   E    S   S   S   
----------------------------------------------------------|
--------(5)--(5)-(5)-(5)-(5)-(5)-(5)-(5)-(5)--(5)-(5)-(5)-|
---------6----6---6---6---6---7---7---7---6----6---6---6--|
--7--7---7----7---7---7---7---7---7---7---7----7---7---7--|
--7--7---7----7---7---7---7---7---7---7---7----7---7---7--|
--5--5---5----5---5---5---5---5---5---5---5----5---5---5--|


  E  S S S S S S S S S E  S S S    S S S S S S S S S S S S S S S S  
--------------------------------|----------------------------------|
--------------------------------|----------------------------------|
-----------------7-7-7-7--7-7-7-|----------------------------------|
--4--4-4-4-4-4-4-5-5-5-4--4-4-4-|--7-7-7-7-7-7-7-7-7-7-7-7-7-7-7-7-|
--4--4-4-4-4-4-4-5-5-5-5--5-5-5-|--7-7-7-7-7-7-7-7-7-7-7-7-7-7-7-7-|
--2--2-2-2-2-2-2----------------|--5-5-5-5-5-5-5-5-5-5-5-5-5-5-5-5-|

Break:

  S S S S S S S S S S S S S S S S    S S S S S S S S S S S S S S S S  
--2-2-x-2-x-2-x-2-x-2-x-2-x-2-x-2-|--3-3-x-3-x-3-x-3-x-3-x-3-x-3-x-3-|
--3-3-x-3-x-3-x-3-x-3-x-3-x-3-x-3-|--3-3-x-3-x-3-x-3-x-3-x-3-x-3-x-3-|
--4-4-x-4-x-4-x-4-x-4-x-4-x-4-x-4-|--4-4-x-4-x-4-x-4-x-4-x-4-x-4-x-4-|
--4-4-x-4-x-4-x-4-x-4-x-4-x-4-x-4-|--5-5-x-5-x-5-x-5-x-5-x-5-x-5-x-5-|
--2-2-x-2-x-2-x-2-x-2-x-2-x-2-x-2-|--5-5-x-5-x-5-x-5-x-5-x-5-x-5-x-5-|
----------------------------------|--3-3-x-3-x-3-x-3-x-3-x-3-x-3-x-3-|


  S S S S S S S S S S S S S S S S    S S S S S S S S S S S S S S S S  
--5-5-x-5-x-5-x-5-x-5-x-5-x-5-x-5-|--5-5-x-5-x-5-x-5-x-5-x-5-x-5-x-5-|
--7-7-x-7-x-7-x-7-x-7-x-7-x-7-x-7-|--5-5-x-5-x-5-x-5-x-5-x-5-x-5-x-5-|
--7-7-x-7-x-7-x-7-x-7-x-7-x-7-x-7-|--6-6-x-6-x-6-x-6-x-6-x-6-x-6-x-6-|
--7-7-x-7-x-7-x-7-x-7-x-7-x-7-x-7-|--7-7-x-7-x-7-x-7-x-7-x-7-x-7-x-7-|
--5-5-x-5-x-5-x-5-x-5-x-5-x-5-x-5-|--7-7-x-7-x-7-x-7-x-7-x-7-x-7-x-7-|
----------------------------------|--5-5-x-5-x-5-x-5-x-5-x-5-x-5-x-5-|


  PM  PM PM  PM PM  PM PM  PM PM  PM PM  PM PM  PM PM  PM  
  S   S  S   S  S   S  S   S  S   S  S   S  S   S  S   S   
----------------------------------------------------------|
----------------------------------------------------------|
----------------------------------------------------------|
----------------------------------------------------------|
--2--(2)-2--(2)-2--(2)-2--(2)-2--(2)-2--(2)-2--(2)-2--(2)-|
----------------------------------------------------------|


  PM  PM PM  PM PM  PM PM  PM PM  PM PM  PM PM  PM PM  PM  
  S   S  S   S  S   S  S   S  S   S  S   S  S   S  S   S   
----------------------------------------------------------|
----------------------------------------------------------|
----------------------------------------------------------|
----------------------------------------------------------|
----------------------------------------------------------|
--3--(3)-3--(3)-3--(3)-3--(3)-3--(3)-3--(3)-3--(3)-3--(3)-|


  PM  PM PM  PM PM  PM PM  PM PM  PM PM  PM PM  PM PM  PM  
  S   S  S   S  S   S  S   S  S   S  S   S  S   S  S   S   
----------------------------------------------------------|
----------------------------------------------------------|
----------------------------------------------------------|
----------------------------------------------------------|
--5--(5)-5--(5)-5--(5)-5--(5)-5--(5)-5--(5)-5--(5)-5--(5)-|
----------------------------------------------------------|

                   
            Here you have to mute the sound
  PM  PM PM  PM PM  PM PM  PM PM  PM PM  PM PM  PM PM  PM  
  S   S  S   S  S   S  S   S  S   S  S   S  S   S  S   S   
----------------------------------------------------------|
----------------------------------------------------------|
----------------------------------------------------------|
----------------------------------------------------------|
----------------------------------------------------------|
--5--(5)-5--(5)-5--(5)-5--(5)-5--(5)-5--(5)-5--(5)-5--(5)-|

solo de trompeta:

  E  E  S S S E  S E  S S S S    E  E  S S S E  S E  S S S S  
------------------------------|------------------------------|
--7--7--7-7-7-7--7-7--7-7-7-7-|--5--5--5-5-5-5--5-5--5-5-5-5-|
--7--7--7-7-7-7--7-7--7-7-7-7-|--6--6--6-6-6-6--6-6--6-6-6-6-|
--7--7--7-7-7-7--7-7--7-7-7-7-|--7--7--7-7-7-7--7-7--7-7-7-7-|
--5--5--5-5-5-5--5-5--5-5-5-5-|--7--7--7-7-7-7--7-7--7-7-7-7-|
------------------------------|--5--5--5-5-5-5--5-5--5-5-5-5-|


  E  E  S S S E  S E  S S S S    E  E  S S S E  S E  S S S S  
------------------------------|------------------------------|
--7--7--7-7-7-7--7-7--7-7-7-7-|--3--3--3-3-3-3--3-3--3-3-3-3-|
--7--7--7-7-7-7--7-7--7-7-7-7-|--4--4--4-4-4-4--4-4--4-4-4-4-|
--9--9--9-9-9-9--9-9--9-9-9-9-|--5--5--5-5-5-5--5-5--5-5-5-5-|
--9--9--9-9-9-9--9-9--9-9-9-9-|--5--5--5-5-5-5--5-5--5-5-5-5-|
--7--7--7-7-7-7--7-7--7-7-7-7-|--3--3--3-3-3-3--3-3--3-3-3-3-|

Solo de Guitarra:

  S S E  S S S E  S E  S S S S    S S E  S S S E  S E  S S E   
-------------------------------|------------------------------|
-------------------------------|------------------------------|
------7-------------7--6-7-6---|------7--6-7-6------7--6-7-9--|
-----------------------------4-|--L-4----------5--5-----------|
--5-5----5-5-5-7--7------------|------------------------------|
-------------------------------|------------------------------|


  S   S S E  S E   E  S E  S E   
--------------------------------|
--------8-7--7-7--/8--8-8--8-8--|
--9s-11---7--7-7--/9--9-9--9-9--|
--------------------------------|
--------------------------------|
--------------------------------|


                      |---3---|  |---3---|  |---3---|  |---3---|  
    E   S  E   S  E   S   S   S  S   S   S  S   S   S  S   S   S  
-----------------------------------------------------------------|
--/10--10-10--10-10----------------------------------------------|
--/11--11-11--11-11--14p-12p-11-14p-12p-11-14p-12p-11-14p-12p-11-|
-----------------------------------------------------------------|
-----------------------------------------------------------------|
-----------------------------------------------------------------|


  W                                                         
-------------------|-------------------|-------------------|
-------------------|-------------------|-------------------|
--7----------------|-------------------|-------------------|
-------------------|-------------------|-------------------|
-------------------|-------------------|-------------------|
-------------------|-------------------|-------------------|


                      E  H.           E     W                 
-------------------|---------------------|-------------------|
-------------------|---------------------|-------------------|
-------------------|-----7------------L--|--L----------------|
-------------------|-----7------------L--|--L----------------|
-------------------|--7--5------------L--|--L----------------|
-------------------|--5------------------|-------------------|


  W                   W                 
-------------------|-------------------|
-------------------|-------------------|
--L----------------|--L----------------|
--L----------------|--L----------------|
--L----------------|--L----------------|
-------------------|-------------------|

Ultimo verso:

   E    E    S   S   S   S  S S S E  S S S  
-------------------------------------------|
--(7)--(7)--(7)-(7)-(7)-(7)-8-8-8-7--7-7-7-|
---7----7----7---7---7---7--7-7-7-7--7-7-7-|
---7----7----7---7---7---7--5-5-5-4--4-4-4-|
---5----5----5---5---5---5-----------------|
-------------------------------------------|


  PM PM                                                    
  S  S   E    S   S   S   S   S   S   S   E    S   S   S   
----------------------------------------------------------|
--------(5)--(5)-(5)-(5)-(5)-(5)-(5)-(5)-(5)--(5)-(5)-(5)-|
---------6----6---6---6---6---7---7---7---6----6---6---6--|
--7--7---7----7---7---7---7---7---7---7---7----7---7---7--|
--7--7---7----7---7---7---7---7---7---7---7----7---7---7--|
--5--5---5----5---5---5---5---5---5---5---5----5---5---5--|


  E  E  S S S S S S S E  S S S    S S S S S S S S S S S S S S S S  
-------------------------------|----------------------------------|
--2--2--2-2-2-2----------------|----------------------------------|
--3--3--3-3-3-3-7-7-7-7--7-7-7-|----------------------------------|
--4--4--4-4-4-4-5-5-5-4--4-4-4-|--7-7-7-7-7-7-7-7-7-7-7-7-7-7-7-7-|
--4--4--4-4-4-4-5-5-5-5--5-5-5-|--7-7-7-7-7-7-7-7-7-7-7-7-7-7-7-7-|
--2--2--2-2-2-2----------------|--5-5-5-5-5-5-5-5-5-5-5-5-5-5-5-5-|


   E    E    S   S   S   S  S S S E  S S S  
-------------------------------------------|
--(7)--(7)--(7)-(7)-(7)-(7)-8-8-8-7--7-7-7-|
---7----7----7---7---7---7--7-7-7-7--7-7-7-|
---7----7----7---7---7---7--5-5-5-4--4-4-4-|
---5----5----5---5---5---5-----------------|
-------------------------------------------|


  PM PM                                                    
  S  S   E    S   S   S   S   S   S   S   E    S   S   S   
----------------------------------------------------------|
--------(5)--(5)-(5)-(5)-(5)-(5)-(5)-(5)-(5)--(5)-(5)-(5)-|
---------6----6---6---6---6---7---7---7---6----6---6---6--|
--7--7---7----7---7---7---7---7---7---7---7----7---7---7--|
--7--7---7----7---7---7---7---7---7---7---7----7---7---7--|
--5--5---5----5---5---5---5---5---5---5---5----5---5---5--|


  E  E  S S S S S S S E  S S S    S S S S S S S S S S S S S S S S  
-------------------------------|----------------------------------|
--2--2--2-2-2-2----------------|----------------------------------|
--3--3--3-3-3-3-7-7-7-7--7-7-7-|----------------------------------|
--4--4--4-4-4-4-5-5-5-4--4-4-4-|--7-7-7-7-7-7-7-7-7-7-7-7-7-7-7-7-|
--4--4--4-4-4-4-5-5-5-5--5-5-5-|--7-7-7-7-7-7-7-7-7-7-7-7-7-7-7-7-|
--2--2--2-2-2-2----------------|--5-5-5-5-5-5-5-5-5-5-5-5-5-5-5-5-|

Outro:

   E    E    S   S   S   S  S S S E  S S S  
-------------------------------------------|
--(7)--(7)--(7)-(7)-(7)-(7)-8-8-8-7--7-7-7-|
---7----7----7---7---7---7--7-7-7-7--7-7-7-|
---7----7----7---7---7---7--5-5-5-4--4-4-4-|
---5----5----5---5---5---5-----------------|
-------------------------------------------|


  PM PM                                                    
  S  S   E    S   S   S   S   S   S   S   E    S   S   S   
----------------------------------------------------------|
--------(5)--(5)-(5)-(5)-(5)-(5)-(5)-(5)-(5)--(5)-(5)-(5)-|
---------6----6---6---6---6---7---7---7---6----6---6---6--|
--7--7---7----7---7---7---7---7---7---7---7----7---7---7--|
--7--7---7----7---7---7---7---7---7---7---7----7---7---7--|
--5--5---5----5---5---5---5---5---5---5---5----5---5---5--|


  E  E  S S S S S S S E  S S S    S S S S S S S S S S S S S S S S  
-------------------------------|----------------------------------|
--2--2--2-2-2-2----------------|----------------------------------|
--3--3--3-3-3-3-7-7-7-7--7-7-7-|----------------------------------|
--4--4--4-4-4-4-5-5-5-4--4-4-4-|--7-7-7-7-7-7-7-7-7-7-7-7-7-7-7-7-|
--4--4--4-4-4-4-5-5-5-5--5-5-5-|--7-7-7-7-7-7-7-7-7-7-7-7-7-7-7-7-|
--2--2--2-2-2-2----------------|--5-5-5-5-5-5-5-5-5-5-5-5-5-5-5-5-|


   E    E    S   S   S   S  S S S E  S S S  
-------------------------------------------|
--(7)--(7)--(7)-(7)-(7)-(7)-8-8-8-7--7-7-7-|
---7----7----7---7---7---7--7-7-7-7--7-7-7-|
---7----7----7---7---7---7--5-5-5-4--4-4-4-|
---5----5----5---5---5---5-----------------|
-------------------------------------------|


  PM PM                                                    
  S  S   E    S   S   S   S   S   S   S   E    S   S   S   
----------------------------------------------------------|
--------(5)--(5)-(5)-(5)-(5)-(5)-(5)-(5)-(5)--(5)-(5)-(5)-|
---------6----6---6---6---6---7---7---7---6----6---6---6--|
--7--7---7----7---7---7---7---7---7---7---7----7---7---7--|
--7--7---7----7---7---7---7---7---7---7---7----7---7---7--|
--5--5---5----5---5---5---5---5---5---5---5----5---5---5--|


  E  E  S S S S S S S E  S S S    S S S S S S S S S S S S S S S S  
-------------------------------|----------------------------------|
--2--2--2-2-2-2----------------|----------------------------------|
--3--3--3-3-3-3-7-7-7-7--7-7-7-|----------------------------------|
--4--4--4-4-4-4-5-5-5-4--4-4-4-|--7-7-7-7-7-7-7-7-7-7-7-7-7-7-7-7-|
--4--4--4-4-4-4-5-5-5-5--5-5-5-|--7-7-7-7-7-7-7-7-7-7-7-7-7-7-7-7-|
--2--2--2-2-2-2----------------|--5-5-5-5-5-5-5-5-5-5-5-5-5-5-5-5-|


  W                   W                  
-------------------|-------------------||
-------------------|-------------------||
--7----------------|--L----------------||
--7----------------|--L----------------||
--5----------------|--L----------------||
-------------------|-------------------||

Tabbed By:Dominic_HD


Duration Legend
---------------
W - whole
H - half
Q - quarter
E - 8th
S - 16th
T - 32nd
X - 64th
. - note dotted
|-n-|  - n-tuplets


Tablature Legend
----------------
L - tied note
x - dead note
g - grace note
(n) - ghost note
> - accentuded note
NH - natural harmonic
AH - artificial harmonic
TH - tapped harmonic
SH - semi harmonic
PH - pitch harmonic
h - hammer on
p - pull off
b - bend
br - bendRelease
pb - preBend
pbr - preBendRelease
brb - bendReleaseBend
\n/ - tremolo bar dip
\n - tremolo bar dive
-/n - tremolo bar Release up
/n\ - tremolo bar inverted dip
/n - tremolo bar return
-\n - tremolo bar Release down
S - shift slide
s - legato slide
/ -  slide into from below or out of upwards
\ -  slide into from above or out of downwards
~ - vibrato
W - wide vibrato
tr - trill
TP - tremolo picking
T - tapping
S - slap
P - pop
< - fade in
^ - brush up
v - brush down
Добавлено: 23.06.2016
Другие материалы по этой песне:
  • Аккорды и текст

Страница создана 23.06.2016
http://primanota.ru/legitimate-business/80-on-80-chords.htm
Привет, Гость.
Предлагаем пройти революционный курс по гитаре.
Подарок от PrimaNota.Ru, забирай!