PrimaNota.ru - самый крупный в мире бесплатный архив песенных текстов, аккордов, табулатур и нот


Legion - A Degradation Period - таба, видео

Регистрация Запомнить меня
Войти через:  Facebook Google Twitter Vk Yandex Mail.ru

Legion - A Degradation Period - таба, видео

Печатать
Просмотров: 103
Уроки эстрадного вокала в Санкт-Петербурге
-------------------------------------------------------------------------------
                             A Degradation Period - Legion
-------------------------------------------------------------------------------
Tabbed by: Darian Mazloomi
Email: aworldwheretruthisfrail@hotmail.com

Tuning: DROP A

0:00-0:24

B|------------------------------------|
F#------------------------------------|
D|------------------------------------|
A|-10-10-10---19-19-19-0-0-0----0-0-0-|
E|-8--8--8-88-15-15-15-0-0-0-00-0-0-0-|
A|-8--8--8-88-15-15-15-0-0-0-00-0-0-0-|
           ..                ..

0:24-0:48

B|-----------------------------------------------------------------|
F#-----------------------------------------------------------------|
D|-------------------------------------9----9---9----9-------------|
A|----12----12---12----12----12--12----8----8---8----8----14----14-|
E|-88-8--88-8--8-8--88-8--88-8-8-8--88-8-88-8-8-8-88-8-88-10-10-10-|
A|-88-8--88-8--8-8--88-8--88-8-8-8--88-8-88-8-8-8-88-8-88-10-10-10-|
   ..    ..    .    ..    ..   .    ..   ..   .   ..   ..    .
B|---------------------------------------------------------|
F#---------------------------------------------------------|
D|---------------------------------------------------------|
A|---------------------------------------------------------|
E|-00---00---0---00---00---0---00---00---0---00---00---0---|
A|-00-0-00-0-0-0-00-0-00-0-0-0-00-0-00-0-0-0-00-0-00-0-0-0-|
   ..   ..   .   ..   ..   .   ..   ..   .   ..   ..   .


0:48-1:05

B|----------------|
F#----------------|
D|----------------|
A|-0-00-000-00-00-|
E|-0-00-000-00-00-|
A|-0-00-000-00-00-|

1:05-1:37

B|--------------------------------------------------------|
F#--------------------------------------------------------|
D|--------------------------------------------------------|
A|--------------------------------------------------------|
E|---12-12-12-12-12-8h10h12-----15--15--15--17--15--12h13-|
A|-88--8--8--8--8--8-------12-12--12--12--12--12--12------|
   ..  .  .  .  .  .       .  .   .   .   .   .   .
B|-------------------------------------------------------|
F#-------------------------------------------------------|
D|-------------------------------------------------------|
A|---10-10-10-10-10-7h8h10-----14--14--14--15--14--10h12-|
E|-88--8--8--8--8--8------12-12--12--12--12--12--12------|
A|-------------------------------------------------------|
   ..  .  .  .  .  .      .  .   .   .    .  .   .      


1:37-1:58

B|---------|
F#---------|
D|---------|
A|-12-0-14-|
E|-8--0-10-|
A|-8--0-10-|

1:58-2:18

B|-------------------------------|-------------------------------|
F#-------------------------------|-------------------------------|
D|-------------------------------|-------------------------------|
A|-------10-7--7------10h12p10---|------14-10--10-----14h15p14---|
E|---12------10---12----------12-|---15------12----15---------15-|
A|-88--8--------88--8------------|-00--0---------00--0-----------|
   ..  .        ..  .              ..  .         ..  .
B|-----------------------------------|--------------------------------|
F#-----------------------------------|--------------------------------|
D|-----------------------------------|--------------------------------|
A|--------14-10--10-------14h15p14---|---14--17-14--14--14-17h19p17---|
E|----12-------12-----12----------15-|------------15---------------19-|
A|-88---8-----------88--8------------|-00--0----------00--0-----------|
   ..   .           ..  .              ..  .          ..  .

2:18-2:48

B|---------------------------------|-8------8----8----8------8---8--|
F#----6-----6-----6------6---6---6-|---6------6----6----6-----6---6-|
D|-9------9-----9------9---9---9---|------9-----9----9-----9--------|
A|-----10----10-----10---10--------|--------------------------------|
E|---------------------------------|--------------------------------|
A|---------------------------------|--------------------------------|

2:50-3:37

e|------------------------------|-------------------------------------------|
B|------------------------------|-------------------------------------------|
G|------------------------------|-------------------------------------------|
D|-7-00-7-00-7-00-7-00-00000000-|-7-00-7-00-0-----------7-00-7-00-0-00-8/11-|
A|-7-00-7-00-7-00-7-00-00000000-|-7-00-7-00-0-----------7-00-7-00-0-00-8/11-|
E|-8-11-8-11-8-11-8-11-11111111-|-8-11-8-11-1-0000-0000-8-11-8-11-1-11-8/11-|
     ..   ..   ..   .. ........     ..   .. .             ..   .. . ..



| /  slide up
| \  slide down
| h  hammer-on
| p  pull-off
| ~  vibrato
| +  harmonic
| .  Palm Mute
===============================================================================
http://www.youtube.com/watch?v=mHq_cSzmz0U
Добавлено: 07.03.2012
Другие материалы по этой песне:
  • Аккорды и текст

Страница создана 07.03.2012
http://primanota.ru/legion/a-degradation-period-chords.htm
Привет, Гость.
Предлагаем пройти революционный курс по гитаре.
Подарок от PrimaNota.Ru, забирай!