PrimaNota.ru - самый крупный в мире бесплатный архив песенных текстов, аккордов, табулатур и нот


Legion Of Doom - Lolitas Medicine - таба, видео

Регистрация Запомнить меня
Войти через:  Facebook Google Twitter Vk Yandex Mail.ru

Legion Of Doom - Lolitas Medicine - таба, видео

Печатать
Просмотров: 243
Gtr I (D A D G B E) - 'Gtr. I - Distortion Guitar I'
Gtr II (D A D G B E) - 'Gtr. II - Distortion Guitar II'
Gtr III (D A D G B E) - 'Gtr. III - FX Guitar I'

Tablature Legend
----------------
 h   - hammer-on
 p   - pull-off
 b   - bend
 pb  - pre-bend
 r   - bend release (if no number after the r, then release immediately)
 /\  - slide into or out of (from/to "nowhere")
 s   - legato slide
 S   - shift slide
 - natural harmonic
[n]  - artificial harmonic
n(n) - tapped harmonic
 ~   - vibrato
 tr  - trill
 T   - tap
 TP  - trem. picking
 PM  - palm muting
\n/  - tremolo bar dip; n = amount to dip
 \n  - tremolo bar down
 n/  - tremolo bar up
/n\  - tremolo bar inverted dip
 =   - hold bend; also acts as connecting device for hammers/pulls
 <> - volume swell (louder/softer)
 x   - on rhythm slash represents muted slash
 o   - on rhythm slash represents single note slash



|----------------------|-------------------------|
|----------------------|-------------------------|
|----------------------|-------------------------|
|-------11-11-11-12-12-|-12-11-11-11-------------|
|-9-9-9----------------|-------------12-12-11-11-|
|----------------------|-------------------------|


  E E E  E  E  E  E  E    E  E  E  E  E  E  E  E
|----------------------|-------------------------||
|----------------------|-------------------------||
|----------------------|-------------------------||
|-------11-11-11-12-12-|-12-11-11-11-------------||
|-9-9-9----------------|-------------12-12-11-11-||
|----------------------|-------------------------||


 Verse
     Gtr III
  E  E    E  E  E  E  E  E    E  E  E  E  E  E  E  E
|--------------------------|-------------------------|
|--------------------------|-------------------------|
|--------------------------|-------------------------|
|-----------11-11-11-12-12-|-12-11-11-11-------------|
|-9--9----9----------------|-------------12-12-11-11-|
|--------------------------|-------------------------|
|
| Gtrs I, II
| E.   E.    E  h             W
|--------------------------|-------------------------|
|--------------------------|-------------------------|
|--------------------------|-------------------------|
|-4----4-----4--4----------|-------------------------|
|-4----4-----4--4----------|-------------------------|
|-4----4-----4--4----------|-------------------------|


  E E E  E  E  E  E  E    E  E  E  E  E  E  E  E
|----------------------|-------------------------|
|----------------------|-------------------------|
|----------------------|-------------------------|
|-------11-11-11-12-12-|-12-11-11-11-------------|
|-9-9-9----------------|-------------12-12-11-11-|
|----------------------|-------------------------|
|
| W                       W
|----------------------|-------------------------|
|----------------------|-------------------------|
|----------------------|-------------------------|
|----------------------|-------------------------|
|----------------------|-------------------------|
|----------------------|-------------------------|


  E  E    E  E  E  E  E  E    E    E    E    E    E  E  E  E
|--------------------------|---------------------------------|
|--------------------------|---------------------------------|
|--------------------------|---------------------------------|
|-----------11-11-11-12-12-|-12---11---11---11---------------|
|-9--9----9----------------|---------------------12-12-11-11-|
|--------------------------|---------------------------------|
|
|                             PM---------------|
| E.   E.    E  h             S S  S S  S S  S S  H
|--------------------------|---------------------------------|
|--------------------------|---------------------------------|
|--------------------------|---------------------------------|
|-4----4-----4--4----------|---------------------11----------|
|-4----4-----4--4----------|--9-9--9-9--9-9--9-9--9----------|
|-4----4-----4--4----------|---------------------------------|


  E E E  E  E  E  E  E    E    E    E    E    E  E  E  E
|----------------------|-----------------------------------|
|----------------------|-----------------------------------|
|----------------------|-----------------------------------|
|-------11-11-11-12-12-|-12---11---11---11-----------------|
|-9-9-9----------------|---------------------12-12-11-11---|
|----------------------|-----------------------------------|
|
|                         PM---------------|
| W                       S S  S S  S S  S S  H
|----------------------|-----------------------------------|
|----------------------|-----------------------------------|
|----------------------|-----------------------------------|
|----------------------|---------------------11------------|
|----------------------|--9-9--9-9--9-9--9-9--9------------|
|----------------------|-----------------------------------|


  E  E    E  E  E  E  E  E    E   E     E  E  E   E     E  E
|--------------------------|---------------------------------|
|--------------------------|---------------------------------|
|--------------------------|---------------------------------|
|-----------11-11-11-12-12-|-12--11----11-11-----------------|
|-9--9----9----------------|-----------------12--12----11-11-|
|--------------------------|---------------------------------|
|
| E.   E.    E  h             E.    E.     E  E.    E.     E
|--------------------------|---------------------------------|
|--------------------------|---------------------------------|
|--------------------------|------------------9-----9------9-|
|-4----4-----4--4----------|--4-----4------0--x-----x------x-|
|-4----4-----4--4----------|--4-----4------0--7-----7------7-|
|-4----4-----4--4----------|--4-----4------0-----------------|


  W                        W
|-----------------------|---------------------------------|
|-----------------------|---------------------------------|
|-----------------------|---------------------------------|
|-----------------------|---------------------------------|
|-----------------------|---------------------------------|
|-----------------------|---------------------------------|
|
| PM------------|          PM------|       PM------|
| S S S S S S S S  H       S  S  S  S  Q   S  S  S  S  Q
|-----------------------|---------------------------------|
|-----------------------|---------------------------------|
|-----------------------|---------------------------------|
|-----------------11----|-------------12--------------11--|
|-9-9-9-9-9-9-9-9--9----|-------------12--------------11--|
|-----------------------|-12-12-12-12-12--11-11-11-11-11--|


    E  E    E  E  E  E  E  E    E   E     E  E  E   E     E  E
||---------------------------|---------------------------------|
||o--------------------------|---------------------------------|
||---------------------------|---------------------------------|
||------------11-11-11-12-12-|-12--11----11-11-----------------|
||o-9--9----9----------------|-----------------12--12----11-11-|
||---------------------------|---------------------------------|
|
|   E.   E.    E  h             E.    E.     E  E.    E.     E
||---------------------------|---------------------------------|
||o--------------------------|---------------------------------|
||---------------------------|------------------9-----9------9-|
||--4----4-----4--4----------|--4-----4------0--x-----x------x-|
||o-4----4-----4--4----------|--4-----4------0--7-----7------7-|
||--4----4-----4--4----------|--4-----4------0-----------------|


  E  E    E  E  E   E     E  E    E   E     E  E  E   E     E  E  4x
|------------------------------|----------------------------------||
|------------------------------|---------------------------------o||
|------------------------------|----------------------------------||
|-----------11-11--11----12-12-|-12--11----11-11------------------||
|-9--9----9--------------------|-----------------12--12----11-11-o||
|------------------------------|----------------------------------||
|
| E.   E.    E  E.    E.     E    E.    E.     E  E.    E.     E  4x
|------------------------------|----------------------------------||
|------------------------------|---------------------------------o||
|---------------4-----4------4-|------------------4-----4------4--||
|-0----0-----0--x-----x------x-|--0-----0------0--x-----x------x--||
|-0----0-----0--2-----2------2-|--0-----0------0--2-----2------2-o||
|-0----0-----0-----------------|--0-----0------0------------------||


    E  E    E  E  E  E  E  E    E    E    E    E    E  E  E  E
||---------------------------|---------------------------------|
||o--------------------------|---------------------------------|
||---------------------------|---------------------------------|
||------------11-11-11-12-12-|-12---11---11---11---------------|
||o-9--9----9----------------|---------------------12-12-11-11-|
||---------------------------|---------------------------------|
|
|                               PM---------------|
|   E.   E.    E  h             S S  S S  S S  S S  H
||---------------------------|---------------------------------|
||o--------------------------|---------------------------------|
||---------------------------|---------------------------------|
||--4----4-----4--4----------|---------------------11----------|
||o-4----4-----4--4----------|--9-9--9-9--9-9--9-9--9----------|
||--4----4-----4--4----------|---------------------------------|


  E   E   E    E    E  E  E  E    E     E     E  E  E     E     E  E  3x
|------------------------------|--------------------------------------||
|------------------------------|-------------------------------------o||
|------------------------------|--------------------------------------||
|-------------11---11-11-12-12-|-12----11----11-11--------------------||
|-9---9---9--------------------|-------------------12----12----11-11-o||
|------------------------------|--------------------------------------||
|
| PM-------------|                PM------|         PM------|
| S S S S S S  S S  H             S  S  S  S  Q     S  S  S  S  Q     3x
|------------------------------|--------------------------------------||
|------------------------------|-------------------------------------o||
|------------------------------|--------------------------------------||
|------------------11----------|-------------12----------------11-----||
|-9-9-9-9-9-9--9-9--9----------|-------------12----------------11----o||
|------------------------------|-12-12-12-12-12----11-11-11-11-11-----||


  E  E    E  E  E  E  E  E    E    E    E    E    E  E  E  E
|--------------------------|---------------------------------|
|--------------------------|---------------------------------|
|--------------------------|---------------------------------|
|-----------11-11-11-12-12-|-12---11---11---11---------------|
|-9--9----9----------------|---------------------12-12-11-11-|
|--------------------------|---------------------------------|
|
|                             PM---------------|
| E.   E.    E  h             S S  S S  S S  S S  H
|--------------------------|---------------------------------|
|--------------------------|---------------------------------|
|--------------------------|---------------------------------|
|-4----4-----4--4----------|---------------------11----------|
|-4----4-----4--4----------|--9-9--9-9--9-9--9-9--9----------|
|-4----4-----4--4----------|---------------------------------|


  W                        W
|-----------------------|----------------------------------||
|-----------------------|----------------------------------||
|-----------------------|----------------------------------||
|-----------------------|----------------------------------||
|-----------------------|----------------------------------||
|-----------------------|----------------------------------||
|
| PM------------|          PM------|       PM------|
| S S S S S S S S  H       S  S  S  S  Q   S  S  S  S  Q
|-----------------------|----------------------------------||
|-----------------------|----------------------------------||
|-----------------------|----------------------------------||
|-----------------11----|-------------12--------------11---||
|-9-9-9-9-9-9-9-9--9----|-------------12--------------11---||
|-----------------------|-12-12-12-12-12--11-11-11-11-11---||


   Pre-Chorus
    Gtr I
    E  E    E  E    E   E     E  E      E   E     E  E    E  E  E  E
||-----------------------------------|-------------------------------|
||o----------------------------------|-------------------------------|
||-----------------------------------|-------------------------------|
||------------11---11--11----12-12---|-12--11----11-11---------------|
||o-9--9----9------------------------|-------------------12-12-11-11-|
||-----------------------------------|-------------------------------|
|
|   Gtr II
|   E.   e.    S S  E.    e.     S S    E.    e.     S S  E  E  E  E
||-----------------------------------|-------------------------------|
||o----------------------------------|-------------------------------|
||--6----6-----6-6--6-----6------6-6-|--6-----6------6-6--6--6--4--4-|
||--4----4-----4-4--4-----4------4-4-|--4-----4------4-4--4--4--2--2-|
||o-4----4-----4-4--4-----4------4-4-|--4-----4------4-4--4--4--2--2-|
||--4----4-----4-4--4-----4------4-4-|--4-----4------4-4--4--4--2--2-|


  E  E    E  E    E   E     E  E      E   E     E  E    E  E  E  E   4x
|----------------------------------|---------------------------------||
|----------------------------------|--------------------------------o||
|----------------------------------|---------------------------------||
|-----------11---11--11----12-12---|-12--11----11-11-----------------||
|-9--9----9------------------------|-------------------12-12-11-11--o||
|----------------------------------|---------------------------------||
|
| E.   e.    S S  E.    e.     S S    E.    e.     S S  E  E  E  E   4x
|----------------------------------|---------------------------------||
|----------------------------------|--------------------------------o||
|-6----6-----6-6--6-----6------6-6-|--6-----6------6-6--6--6--6--6---||
|-0----0-----0-0--0-----0------0-0-|--0-----0------0-0--0--0--0--0---||
|-0----0-----0-0--0-----0------0-0-|--0-----0------0-0--0--0--0--0--o||
|-0----0-----0-0--0-----0------0-0-|--0-----0------0-0--0--0--0--0---||


   Chorus
    Gtrs I, II
     H     Q   E E    E  E  E  E  E  E  E E   Q.   Q.   E E   H    Q  E E
||-----------------|------------------------|---------------|--------------||
||o----------------|------------------------|---------------|-------------o||
||-----------------|-11-11-11-11-11-11-11---|-9----9----9-9-|-6----6--6----||
||--11----11--11---|--x--x--x--x--x--x--x-0-|-0----0----0-0-|-4----4--4----||
||o--9-----9---9-0-|--9--9--9--9--9--9--9-0-|-0----0----0-0-|-4----4--4-0-o||
||---9-----9---9-0-|----------------------0-|-0----0----0-0-|-4----4--4-0--||


  Gtr I
   H         Q     E E     E   E  E  E  E  E  E E
|----------------------|--------------------------|
|----------------------|--------------------------|
|----------------------|--11--11-11-11-11-11-11---|
|-11--------11----11---|---x---x--x--x--x--x--x-0-|
|--9---------9-----9-0-|---9---9--9--9--9--9--9-0-|
|--9---------9-----9-0-|------------------------0-|
|
| Gtr II
|  Q.    E.    E.  Q      +H.                 Q
|----------------------|--------------------------|
|----------------------|--------------------------|
|-14----13--------11---|-(11)---------------------|
|----------------------|--------------------------|
|-12----11---------9---|--(9)---------------------|
|----------------------|--------------------------|


  Q.   Q.   E E   H     Q   E E
|---------------|----------------|
|---------------|----------------|
|-9----9----9-9-|-6-----6---6----|
|-0----0----0-0-|-4-----4---4----|
|-0----0----0-0-|-4-----4---4-0--|
|-0----0----0-0-|-4-----4---4-0--|
|
| W               H     Q   Q
|---------------|----------------|
|---------------|----------------|
|---------------|------14--13----|
|---------------|----------------|
|---------------|------12--11----|
|---------------|----------------|


   H         Q    E E     E   E  E  E  E  E  E E
|---------------------|--------------------------|
|---------------------|--------------------------|
|---------------------|--11--11-11-11-11-11-11---|
|-11--------11---11---|---x---x--x--x--x--x--x-0-|
|--9---------9----9-0-|---9---9--9--9--9--9--9-0-|
|--9---------9----9-0-|------------------------0-|
|
|  E  Q   E  E E  Q      +H.                 Q
|---------------------|--------------------------|
|---------------------|--------------------------|
|-13s14--14------11---|-(11)---------------------|
|---------------------|--------------------------|
|-11s12--12----9--9---|--(9)---------------------|
|---------------------|--------------------------|


  Q.   Q.    E E    H     Q  E E
|----------------|---------------|
|----------------|---------------|
|-9----9-----9-9-|--6-----6--6---|
|-0----0-----0-0-|--4-----4--4---|
|-0----0-----0-0-|--4-----4--4-0-|
|-0----0-----0-0-|--4-----4--4-0-|
|
| Q.   E. E. Q     +H     H
|----------------|---------------|
|----------------|---------------|
|-6----7-----4---|-(4)-----------|
|----------------|---------------|
|-4----5-----2---|-(2)-----------|
|----------------|---------------|


   Verse 2
    Gtr III
    E  E    E  E  E  E  E  E    E    E    E    E    E  E  E  E
||---------------------------|---------------------------------|
||o--------------------------|---------------------------------|
||---------------------------|---------------------------------|
||------------11-11-11-12-12-|-12---11---11---11---------------|
||o-9--9----9----------------|---------------------12-12-11-11-|
||---------------------------|---------------------------------|
|
|   Gtrs I, II
|                               PM---------------|
|   E.   E.    E  h             S S  S S  S S  S S  H
||---------------------------|---------------------------------|
||o--------------------------|---------------------------------|
||---------------------------|---------------------------------|
||--4----4-----4--4----------|---------------------11----------|
||o-4----4-----4--4----------|--9-9--9-9--9-9--9-9--9----------|
||--4----4-----4--4----------|---------------------------------|


  E   E   E    E    E  E  E  E    E     E     E  E  E     E     E  E
|------------------------------|--------------------------------------||
|------------------------------|-------------------------------------o||
|------------------------------|--------------------------------------||
|-------------11---11-11-12-12-|-12----11----11-11--------------------||
|-9---9---9--------------------|-------------------12----12----11-11-o||
|------------------------------|--------------------------------------||
|
| PM-------------|                PM------|         PM------|
| S S S S S S  S S  H             S  S  S  S  Q     S  S  S  S  Q
|------------------------------|--------------------------------------||
|------------------------------|-------------------------------------o||
|------------------------------|--------------------------------------||
|------------------11----------|-------------12----------------11-----||
|-9-9-9-9-9-9--9-9--9----------|-------------12----------------11----o||
|------------------------------|-12-12-12-12-12----11-11-11-11-11-----||


    E  E    E  E  E  E  E  E    E  E  E  E  E  E  E  E
||---------------------------|-------------------------|
||o--------------------------|-------------------------|
||---------------------------|-------------------------|
||------------11-11-11-12-12-|-12-11-11-11-------------|
||o-9--9----9----------------|-------------12-12-11-11-|
||---------------------------|-------------------------|
|
|   E.   E.    E  h             W
||---------------------------|-------------------------|
||o--------------------------|-------------------------|
||---------------------------|-------------------------|
||--4----4-----4--4----------|-------------------------|
||o-4----4-----4--4----------|-------------------------|
||--4----4-----4--4----------|-------------------------|


  E E E  E  E  E  E  E    E  E  E  E  E  E  E  E
|----------------------|---------------------------||
|----------------------|--------------------------o||
|----------------------|---------------------------||
|-------11-11-11-12-12-|-12-11-11-11---------------||
|-9-9-9----------------|-------------12-12-11-11--o||
|----------------------|---------------------------||
|
| W                       W
|----------------------|---------------------------||
|----------------------|--------------------------o||
|----------------------|---------------------------||
|----------------------|---------------------------||
|----------------------|--------------------------o||
|----------------------|---------------------------||


    E  E    E  E  E  E  E  E    E   E     E  E  E   E     E  E
||---------------------------|---------------------------------|
||o--------------------------|---------------------------------|
||---------------------------|---------------------------------|
||------------11-11-11-12-12-|-12--11----11-11-----------------|
||o-9--9----9----------------|-----------------12--12----11-11-|
||---------------------------|---------------------------------|
|
|   E.   E.    E  h             E.    E.     E  E.    E.     E
||---------------------------|---------------------------------|
||o--------------------------|---------------------------------|
||---------------------------|------------------9-----9------9-|
||--4----4-----4--4----------|--4-----4------0--x-----x------x-|
||o-4----4-----4--4----------|--4-----4------0--7-----7------7-|
||--4----4-----4--4----------|--4-----4------0-----------------|


  E  E    E  E  E   E     E  E    E   E     E  E  E   E     E  E
|------------------------------|----------------------------------||
|------------------------------|---------------------------------o||
|------------------------------|----------------------------------||
|-----------11-11--11----12-12-|-12--11----11-11------------------||
|-9--9----9--------------------|-----------------12--12----11-11-o||
|------------------------------|----------------------------------||
|
| E.   E.    E  E.    E.     E    E.    E.     E  E.    E.     E
|------------------------------|----------------------------------||
|------------------------------|---------------------------------o||
|---------------4-----4------4-|------------------4-----4------4--||
|-0----0-----0--x-----x------x-|--0-----0------0--x-----x------x--||
|-0----0-----0--2-----2------2-|--0-----0------0--2-----2------2-o||
|-0----0-----0-----------------|--0-----0------0------------------||


   Pre-Chorus 2
    Gtr I
    E  E    E  E    E   E     E  E      E   E     E  E    E  E  E  E
||-----------------------------------|-------------------------------|
||o----------------------------------|-------------------------------|
||-----------------------------------|-------------------------------|
||------------11---11--11----12-12---|-12--11----11-11---------------|
||o-9--9----9------------------------|-------------------12-12-11-11-|
||-----------------------------------|-------------------------------|
|
|   Gtr II
|   E.   e.    S S  E.    e.     S S    E.    e.     S S  E  E  E  E
||-----------------------------------|-------------------------------|
||o----------------------------------|-------------------------------|
||--6----6-----6-6--6-----6------6-6-|--6-----6------6-6--6--6--4--4-|
||--4----4-----4-4--4-----4------4-4-|--4-----4------4-4--4--4--2--2-|
||o-4----4-----4-4--4-----4------4-4-|--4-----4------4-4--4--4--2--2-|
||--4----4-----4-4--4-----4------4-4-|--4-----4------4-4--4--4--2--2-|


  E  E    E  E    E   E     E  E      E   E     E  E    E  E  E  E
|----------------------------------|---------------------------------||
|----------------------------------|--------------------------------o||
|----------------------------------|---------------------------------||
|-----------11---11--11----12-12---|-12--11----11-11-----------------||
|-9--9----9------------------------|-------------------12-12-11-11--o||
|----------------------------------|---------------------------------||
|
| E.   e.    S S  E.    e.     S S    E.    e.     S S  E  E  E  E
|----------------------------------|---------------------------------||
|----------------------------------|--------------------------------o||
|-6----6-----6-6--6-----6------6-6-|--6-----6------6-6--6--6--6--6---||
|-0----0-----0-0--0-----0------0-0-|--0-----0------0-0--0--0--0--0---||
|-0----0-----0-0--0-----0------0-0-|--0-----0------0-0--0--0--0--0--o||
|-0----0-----0-0--0-----0------0-0-|--0-----0------0-0--0--0--0--0---||


   Chorus 2
    Gtrs I, II
     H     Q   E E    E  E  E  E  E  E  E E   Q.   Q.   E E   H    Q  E E
||-----------------|------------------------|---------------|--------------||
||o----------------|------------------------|---------------|-------------o||
||-----------------|-11-11-11-11-11-11-11---|-9----9----9-9-|-6----6--6----||
||--11----11--11---|--x--x--x--x--x--x--x-0-|-0----0----0-0-|-4----4--4----||
||o--9-----9---9-0-|--9--9--9--9--9--9--9-0-|-0----0----0-0-|-4----4--4-0-o||
||---9-----9---9-0-|----------------------0-|-0----0----0-0-|-4----4--4-0--||


  Gtr I
   H         Q     E E     E   E  E  E  E  E  E E
|----------------------|--------------------------|
|----------------------|--------------------------|
|----------------------|--11--11-11-11-11-11-11---|
|-11--------11----11---|---x---x--x--x--x--x--x-0-|
|--9---------9-----9-0-|---9---9--9--9--9--9--9-0-|
|--9---------9-----9-0-|------------------------0-|
|
| Gtr II
|  Q.    E.    E.  Q      +H.                 Q
|----------------------|--------------------------|
|----------------------|--------------------------|
|-14----13--------11---|-(11)---------------------|
|----------------------|--------------------------|
|-12----11---------9---|--(9)---------------------|
|----------------------|--------------------------|


  Q.   Q.   E E   H     Q   E E
|---------------|----------------|
|---------------|----------------|
|-9----9----9-9-|-6-----6---6----|
|-0----0----0-0-|-4-----4---4----|
|-0----0----0-0-|-4-----4---4-0--|
|-0----0----0-0-|-4-----4---4-0--|
|
| W               H     Q   Q
|---------------|----------------|
|---------------|----------------|
|---------------|------14--13----|
|---------------|----------------|
|---------------|------12--11----|
|---------------|----------------|


   H         Q    E E     E   E  E  E  E  E  E E
|---------------------|--------------------------|
|---------------------|--------------------------|
|---------------------|--11--11-11-11-11-11-11---|
|-11--------11---11---|---x---x--x--x--x--x--x-0-|
|--9---------9----9-0-|---9---9--9--9--9--9--9-0-|
|--9---------9----9-0-|------------------------0-|
|
|  E  Q   E  E E  Q      +H.                 Q
|---------------------|--------------------------|
|---------------------|--------------------------|
|-13s14--14------11---|-(11)---------------------|
|---------------------|--------------------------|
|-11s12--12----9--9---|--(9)---------------------|
|---------------------|--------------------------|


  Q.   Q.    E E    H     Q  E E
|----------------|---------------|
|----------------|---------------|
|-9----9-----9-9-|--6-----6--6---|
|-0----0-----0-0-|--4-----4--4---|
|-0----0-----0-0-|--4-----4--4-0-|
|-0----0-----0-0-|--4-----4--4-0-|
|
| Q.   E. E. Q     +H     H
|----------------|---------------|
|----------------|---------------|
|-6----7-----4---|-(4)-----------|
|----------------|---------------|
|-4----5-----2---|-(2)-----------|
|----------------|---------------|


   Outro
    Gtr I
    E  E    E  E    E   E     E  E      E   E     E  E    E  E  E  E
||-----------------------------------|-------------------------------|
||o----------------------------------|-------------------------------|
||-----------------------------------|-------------------------------|
||------------11---11--11----12-12---|-12--11----11-11---------------|
||o-9--9----9------------------------|-------------------12-12-11-11-|
||-----------------------------------|-------------------------------|
|
|   Gtr II
|   E.   e.    S S  E.    e.     S S    E.    e.     S S  E  E  E  E
||-----------------------------------|-------------------------------|
||o----------------------------------|-------------------------------|
||--6----6-----6-6--6-----6------6-6-|--6-----6------6-6--6--6--4--4-|
||--4----4-----4-4--4-----4------4-4-|--4-----4------4-4--4--4--2--2-|
||o-4----4-----4-4--4-----4------4-4-|--4-----4------4-4--4--4--2--2-|
||--4----4-----4-4--4-----4------4-4-|--4-----4------4-4--4--4--2--2-|


  E  E    E  E    E   E     E  E      E   E     E  E    E  E  E  E
|----------------------------------|---------------------------------||
|----------------------------------|--------------------------------o||
|----------------------------------|---------------------------------||
|-----------11---11--11----12-12---|-12--11----11-11-----------------||
|-9--9----9------------------------|-------------------12-12-11-11--o||
|----------------------------------|---------------------------------||
|
| E.   e.    S S  E.    e.     S S    E.    e.     S S  E  E  E  E
|----------------------------------|---------------------------------||
|----------------------------------|--------------------------------o||
|-6----6-----6-6--6-----6------6-6-|--6-----6------6-6--6--6--6--6---||
|-0----0-----0-0--0-----0------0-0-|--0-----0------0-0--0--0--0--0---||
|-0----0-----0-0--0-----0------0-0-|--0-----0------0-0--0--0--0--0--o||
|-0----0-----0-0--0-----0------0-0-|--0-----0------0-0--0--0--0--0---||


  Gtr III
  E  E    E  E    E   E     E  E      E   E     E  E    E  E  E  E
|----------------------------------|-------------------------------|
|----------------------------------|-------------------------------|
|----------------------------------|-------------------------------|
|-----------11---11--11----12-12---|-12--11----11-11---------------|
|-9--9----9------------------------|-------------------12-12-11-11-|
|----------------------------------|-------------------------------|
|
| Gtrs I, II
| >                                   >
| E.   e.    S S  E.    e.     S S    E.    e.     S S  E  E  E  E
|----------------------------------|-------------------------------|
|----------------------------------|-------------------------------|
|-6----6-----6-6--6-----6------6-6-|--6-----6------6-6--6--6--4--4-|
|-4----4-----4-4--4-----4------4-4-|--4-----4------4-4--4--4--2--2-|
|-4----4-----4-4--4-----4------4-4-|--4-----4------4-4--4--4--2--2-|
|-4----4-----4-4--4-----4------4-4-|--4-----4------4-4--4--4--2--2-|


  E  E    E  E    E   E     E  E      E   E     E  E    E  E  E  E
|----------------------------------|---------------------------------|
|----------------------------------|---------------------------------|
|----------------------------------|---------------------------------|
|-----------11---11--11----12-12---|-12--11----11-11-----------------|
|-9--9----9------------------------|-------------------12-12-11-11---|
|----------------------------------|---------------------------------|
|
| >                                   >
| E.   e.    S S  E.    e.     S S    E.    e.     S S  E  E  E  E
|----------------------------------|---------------------------------|
|----------------------------------|---------------------------------|
|-6----6-----6-6--6-----6------6-6-|--6-----6------6-6--6--6--6--6---|
|-0----0-----0-0--0-----0------0-0-|--0-----0------0-0--0--0--0--0---|
|-0----0-----0-0--0-----0------0-0-|--0-----0------0-0--0--0--0--0---|
|-0----0-----0-0--0-----0------0-0-|--0-----0------0-0--0--0--0--0---|


  E  E    E  E    E   E     E  E      E   E     E  E    E  E  E  E
|----------------------------------|-------------------------------|
|----------------------------------|-------------------------------|
|----------------------------------|-------------------------------|
|-----------11---11--11----12-12---|-12--11----11-11---------------|
|-9--9----9------------------------|-------------------12-12-11-11-|
|----------------------------------|-------------------------------|
|
| >                                   >
| E.   e.    S S  E.    e.     S S    E.    e.     S S  E  E  E  E
|----------------------------------|-------------------------------|
|----------------------------------|-------------------------------|
|-6----6-----6-6--6-----6------6-6-|--6-----6------6-6--6--6--4--4-|
|-4----4-----4-4--4-----4------4-4-|--4-----4------4-4--4--4--2--2-|
|-4----4-----4-4--4-----4------4-4-|--4-----4------4-4--4--4--2--2-|
|-4----4-----4-4--4-----4------4-4-|--4-----4------4-4--4--4--2--2-|


  E  E    E  E    E   E     E  E      E   E     E  E    E  E  E  E
|----------------------------------|---------------------------------|
|----------------------------------|---------------------------------|
|----------------------------------|---------------------------------|
|-----------11---11--11----12-12---|-12--11----11-11-----------------|
|-9--9----9------------------------|-------------------12-12-11-11---|
|----------------------------------|---------------------------------|
|
| >                                   >
| E.   e.    S S  E.    e.     S S    E.    e.     S S  E  E  E  E
|----------------------------------|---------------------------------|
|----------------------------------|---------------------------------|
|-6----6-----6-6--6-----6------6-6-|--6-----6------6-6--6--6--6--6---|
|-0----0-----0-0--0-----0------0-0-|--0-----0------0-0--0--0--0--0---|
|-0----0-----0-0--0-----0------0-0-|--0-----0------0-0--0--0--0--0---|
|-0----0-----0-0--0-----0------0-0-|--0-----0------0-0--0--0--0--0---|


    Gtr III
    E E E  E  E  E  E  E    E  E  E  E  E  E  E  E
||-----------------------|-------------------------|
||o----------------------|-------------------------|
||-----------------------|-------------------------|
||--------11-11-11-12-12-|-12-11-11-11-------------|
||o-9-9-9----------------|-------------12-12-11-11-|
||-----------------------|-------------------------|


  E E E  E  E  E  E  E    E  E  E  E  E  E  E  E
|----------------------|--------------------------||
|----------------------|-------------------------o||
|----------------------|--------------------------||
|-------11-11-11-12-12-|-12-11-11-11--------------||
|-9-9-9----------------|-------------12-12-11-11-o||
|----------------------|--------------------------||


  E E E  E  E  E  E  E    E  E  E  E  E  E  E  E
|----------------------|-------------------------|
|----------------------|-------------------------|
|----------------------|-------------------------|
|-------11-11-11-12-12-|-12-11-11-11-------------|
|-9-9-9----------------|-------------12-12-11-11-|
|----------------------|-------------------------|


  E   E   E  E E   E   E  E   E   E   E  E H
|---------------------------|-------------------*|
|---------------------------|-------------------*|
|---------------------------|-------------------*|
|---------------------------|-------------------*|
|---(12)-11-11---(12)-11-11-|---(12)-11-11------*|
|---------------------------|-------------------*|
Добавлено: 27.02.2012
Другие материалы по этой песне:

Страница создана 23.02.2012
http://primanota.ru/legion-of-doom/lolitas-medicine-chords.htm
Привет, Гость.
Предлагаем пройти революционный курс по гитаре.
Подарок от PrimaNota.Ru, забирай!