PrimaNota.ru - самый крупный в мире бесплатный архив песенных текстов, аккордов, табулатур и нот


Legion Of Doom - I Know What You Buried Last Summer - текст песни, таба, видео

Регистрация Запомнить меня
Войти через:  Facebook Google Twitter Vk Yandex Mail.ru

Legion Of Doom - I Know What You Buried Last Summer - текст песни, таба, видео

Печатать
Просмотров: 126
----------------------------------------------------------------------------
          I Know What You Buried Last Summer - LEGION OF DOOM

(You're So Last Summer - TAKING BACK SUNDAY and  Buried A Lie - SENSES FAIL)
----------------------------------------------------------------------------

Tabbed by: Josh (Panic!AtTheJosh)
Email: spiderdude328@yahoo.com

Guitar 1 : Standard
Guitar 2 : Drop D
Guitar 3 : Standard

Intro/Verse

Guitar 1
e|-----------------------------|
B|-----------------------------|
G|-----2---------------2-------|
D|---0---4---2--0----0---4---2-| Repeat as needed
A|-4-------4-------4-------4---|
E|-----------------------------|

 Guitar 2 (acoustic)
e|-----------------------------------------------|
B|-----------------------------------------------|
G|-4-4-4-4-4--7-7-7-7-7-7--5-5-5-5-5--2-2-2-2-2--|
D|-4-4-4-4-4--7-7-7-7-7-7--5-5-5-5-5--2-2-2-2-2--|
A|-2-2-2-2-2--5-5-5-5-5-5--7-7-7-7-7--0-0-0-0-0--|
D|------------5-5-5-5-5-5------------------------|

Guitar 3 (come in before "You're a touch overrated...")
e|------------------------|
B|------------------------|
G|------------------------|
D|-666-777777777777-------|
A|-444-555555555555-0-----|
E|------------------------|
 PM... ............ .

Pre-Verse

Guitar 1
e|--------10---------------10-----|      
B|--------------------------------|      
G|-11-11p9---9h11---11-11p9---9h11|x2  Not sure if this is right, but it's 
D|--------------------------------|    still cool to play
A|--------------------------------|      
E|--------------------------------|      


Verse

Guitar 2 (Rest in peace, girl...)
e|---------------------------------------------------------------------|
B|---------------------------------------------------------------------|
G|---------------------------------------------------------------------|
D|-0000000000000000-4444444444444444-9999999999999999-5555555555555555-| x2
A|-0000000000000000-4444444444444444-9999999999999999-5555555555555555-|
D|-0000000000000000-4444444444444444-9999999999999999-5555555555555555-|
 PM................ ................ ................ ................

Guitar 1 (come in at "I went to your grave..."
e|--------------------------------------------|
B|-222-101010-7777-5555--222-101010-7777-8888-|
G|--------------------------------------------|
D|--------------------------------------------| x2
A|--------------------------------------------|
E|--------------------------------------------|
PM... . . .  .... ....  ... . . .  .... ....


Chorus

Guitar 1 and Guitar 3(All I need to know...)
e|-------------------------------------------------|
B|-------------------------------------------------|
G|--7----------------------------------------------|
D|--7--(x16)----7-----------9----------5-----------|
A|--5-----------7--(x16)----9--(x16)---5--(x16)----|
E|--------------5-----------7----------3-----------|

Guitar 2
e|---------------------------------------|
B|-10~--7~--5h7~----10~---7~---5h7---5---|
G|---------------------------------7---7-|
D|---------------------------------------|   
A|---------------------------------------|
D|---------------------------------------|


Post-Chorus

Guitar 2
e|-----------------------------------------|
B|-----------------------------------------|
G|-----------------------------------------|
D|-555-000-555-000-55-555-000-555-000-5555-|
A|-555-000-555-000-55-555-000-555-000-5555-|
D|-555-000-555-000-55-555-000-555-000-5555-|

Bridge

Guitar 1 (Cause I'm a wishful thinker...)
e|----------------------------------------|
B|----------------------------------------|
G|----------------------------------------|
D|--55555--55555--555--99999--99999--999--|
A|--55555--55555--555--99999--99999--999--|
E|--33333--33333--333--77777--77777--777--|


Repeat Intro

Guitar 1
e|-------------------------------------------|
B|-------------------------------------------|
G|-666-777-14-141414-111111-12-9-999999-1111-|
D|-xxx-xxx-x--x-x-x--x-x-x--x--x-xxxxxx-x-x--|
A|-444-555-12-121212-9-9-9-/10-7-777777/9-9--|
E|-------------------------------------------|


No Guitar until "If I'm just bad news, then you're a liar"


Guitar 1 and Guitar 3 (Chorus)
e|------------------------------------------|         
B|------------------------------------------|         
G|--77777777--------------------------------|           
D|--77777777--77777777--99999999--55555555--| x4           
A|--55555555--77777777--99999999--55555555--|              
E|------------55555555--77777777--33333333--|             

e|----------------|
B|----------------|
G|-7~-------------|
D|-7~--7~--9~--5~-| x2
A|-5~--7~--9~--5~-|
E|-----5~--7~--3~-|

Guitar 3 (come in after 1st time of ringing chords and end with)
e|------------------------|
B|------------------------|
G|------------------------|
D|-666-777777777777-------|
A|-444-555555555555-0-----|
E|------------------------|
 PM... ............ .




Добавлено: 16.03.2012
Другие материалы по этой песне:

Страница создана 13.03.2012
http://primanota.ru/legion-of-doom/i-know-what-you-buried-last-summer-chords.htm
Привет, Гость.
Предлагаем пройти революционный курс по гитаре.
Подарок от PrimaNota.Ru, забирай!