PrimaNota.ru - самый крупный в мире бесплатный архив песенных текстов, аккордов, табулатур и нот


Legio Urbana - Teatro Dos Vampiros - таба, видео

Регистрация Запомнить меня
Войти через:  Facebook Google Twitter Vk Yandex Mail.ru

Legio Urbana - Teatro Dos Vampiros - таба, видео

Печатать
Просмотров: 46
Tom: C

(intro 2x)  C  G/B  Am7  D  (2x)  G

(parte 1)

   C               G/B
E|------------------------------------------|
B|-----1-----1---------3-----3--------------|
G|---0-----0---0-----0-----0---0------------|
D|---------------2---------------0----------|
A|-3-----3---------2-----2------------------|
E|------------------------------------------|


(parte 2)

   Am7             D
E|------------------------------------------|
B|-----1-----1---------3-----3--------------|
G|---0-----0---0-----2-----2---3------------|
D|---------------2-0-----0-------0----------|
A|-0-----0----------------------------------|
E|------------------------------------------|


(repete parte 1)

   C               G/B
E|------------------------------------------|
B|-----1-----1---------3-----3--------------|
G|---0-----0---0-----0-----0---0------------|
D|---------------2---------------0----------|
A|-3-----3---------2-----2------------------|
E|------------------------------------------|


(parte 3)

   Am7     D       G
E|------------------------------------------|
B|-----1-------3-------3-----3--------------|
G|---0---0---2---2---0-----0---0------------|
D|---------0---------------------0----------|
A|-0----------------------------------------|
E|-----------------3-----3------------------|


(violão solo)

(parte 1)

E|------------------------------------------|
B|---5-----3---1-------3--------------------|
G|-----0------------------0-----------------|
D|-5-----4---2---2/4-4------4---------------|
A|------------------------------------------|
E|------------------------------------------|


(parte 2)

E|---------------------2--------------------|
B|---5-----3---1---3-----3---0--------------|
G|-----0------------------------------------|
D|-5-----4---2---0---0-----0----------------|
A|------------------------------------------|
E|------------------------------------------|


(parte 3)

E|------------------------------------------|
B|---5-----3---1-------3--------------------|
G|-----0------------------0-----------------|
D|-5-----4---2---2/4-4------4---------------|
A|------------------------------------------|
E|------------------------------------------|


(parte 4)

E|------------------------------------------|
B|---5/7----7---------8-----8---------------|
G|------------0---------0-----0---0---------|
D|-5--/7--7-----7-7/9-----9-----9-----------|
A|------------------------------------------|
E|------------------------------------------|


(primeira parte)
 C                     G/B
Sempre precisei de um pouco de atenção
C
Acho que não sei quem sou
    G/B
Só sei do que não gosto
C                       G/B
  E nesses dias tão estranhos
       Bb6(11+)
Fica poeira se escondendo pelos cantos
C                 G/B
  Este é o nosso mundo
             C                 G/B
E o que é demais nunca é o bastante
              C                      G/B
E a primeira vez é sempre a última chance
         Bb6(11+)
Ninguém vê onde chegamos
                     C
Os assassinos estão livres, nós não estamos

(primeira parte)

(parte 1)

   C               G/B
E|------------------------------------------|
B|-----1-----1---------3-----3--------------|
G|---0-----0---0-----0-----0---0------------|
D|---------------2---------------0----------|
A|-3-----3---------2-----2------------------|
E|------------------------------------------|

(3x)

(parte 2)

   Bb6(11+)
E|------------------------------------------|
B|-----3-----3---------3-----3--------------|
G|---0-----0---0-----0-----0---0------------|
D|---------------0---------------0----------|
A|-1-----1---------1-----1------------------|
E|------------------------------------------|


(parte 3)

   C
E|------------------------------------------|
B|-----5-----5---------5-----5--------------|
G|---0-----0---0-----0-----0---0------------|
D|---------------5---------------5----------|
A|-3-----3---------3-----3------------------|
E|------------------------------------------|


(violão solo)

(parte 1)

E|---------3p0------------0-----------------|
B|---5--------------3-------3---------------|
G|-----0-------0------0---------------------|
D|-5-----5--------4-----4-----4/5-----------|
A|------------------------------------------|
E|------------------------------------------|


(parte 2)

E|---------1-----------1--------------------|
B|---3-------3---3--------------------------|
G|-----0-----------0-----0---0--------------|
D|-3-----3-----3-----3-----3---3/5----------|
A|------------------------------------------|
E|------------------------------------------|


(parte 3)

E|------------------------------------------|
B|-5-5-5-3-1-1-1-----1----------------------|
G|-0-0-0-0-0-0---0-----0--------------------|
D|-5-5-5-3-2-2-----2------------------------|
A|------------------------------------------|
E|------------------------------------------|


(segunda parte)
G
  Vamos sair! Mas não temos mais dinheiro

Os meus amigos todos estão procurando emprego
    F7M(11+)
Voltamos a viver como há dez anos atrás
     C/G
E a cada hora que passa

Envelhecemos dez semanas
G
  Vamos lá, tudo bem! Eu só quero me divertir

Esquecer, dessa noite ter um lugar legal pra ir
F7M(11+)
        Já entregamos o alvo e a artilharia
      C/G
Comparamos nossas vidas e esperamos que um dia
        G
Nossas vidas possam se encontrar

(segunda parte)
C               G/B              C
  Quando me vi tendo de viver comigo apenas
         G/B
E com o mundo
C                       G/B
  Você me veio como um sonho bom
     Bb6(11+)
E me assustei
            C
Não sou perfeito eu não esqueço
C                    G/B
  A riqueza que nós temos
     C            G/B
Ninguém consegue perceber
C                    G/B   Bb6(11+)
  E de pensar nisso tudo,  eu, homem feito
 C
Tive medo e não consegui dormir

(segunda parte - violão solo)

(parte 1)

E|---7-----7-----7-----7-----7--------------|
B|-----0-----0-----0-----0-----0------------|
G|-7-----7-----7-----7-----7----------------|
D|------------------------------------------|
A|------------------------------------------|
E|------------------------------------------|


(parte 2)

E|---7-----7---------8---7---5--------------|
B|-----0-----0------------------------------|
G|-7-----7-----7-7/9---7---5----------------|
D|------------------------------------------|
A|------------------------------------------|
E|------------------------------------------|


(parte 3)

E|---5-----5-----5-----5-----5--------------|
B|-----3-----3-----3-----3-----3------------|
G|-5-----5-----5-----5-----5----------------|
D|------------------------------------------|
A|------------------------------------------|
E|------------------------------------------|


(parte 4)

E|---3-----3-----3-----3-------5------------|
B|-----0-----0-----0-----0------------------|
G|-4-----4-----4-----4-----4-5---5----------|
D|------------------------------------------|
A|------------------------------------------|
E|------------------------------------------|


(parte 5)

E|---7-7-7-7-5-5/7-7-7-7-5-3----------------|
B|---0-0-0-0-0-0---0-0-0-0-0----------------|
G|-7-9-9-9-7-5-5/7-7-7-7-5-4----------------|
D|------------------------------------------|
A|------------------------------------------|
E|------------------------------------------|


(segunda parte)
G
  Vamos sair! Mas não temos mais dinheiro

Os meus amigos todos estão procurando emprego
    F7M(11+)
Voltamos a viver como há dez anos atrás
     C/G
E a cada hora que passa

Envelhecemos dez semanas
G
  Vamos lá, tudo bem! Eu só quero me divertir

Esquecer, dessa noite ter um lugar legal pra ir
F7M(11+)
        Já entregamos o alvo e a artilharia
      C/G
Comparamos nossas vidas e mesmo assim
     G
Não tenho pena de ninguém

( G  Em  D ) (4x) G
(final - violão solo)

(parte 1)

E|-7---8-7----3-3-3-3--5-5--x-x-------------|
B|-8---8-8----5-5-5-5--7-7--x-x-------------|
G|-0-0-0-0-0--0-0-0-0--0-0--x-x-------------|
D|-0-0-0-0-0--0-0-0-0--0-0--x-x-------------|
A|------------------------------------------|
E|------------------------------------------|


(parte 2)
E|-7---8-7----x-x-10-10-10-10-8--8---x-x----|
B|-8---8-8----x-x-12-12-12-12-10-10--x-x----|
G|-0-0-0-0-0--x-x-0--0--0--0--0--0---x-x----|
D|-0-0-0-0-0--x-x-0--0--0--0--0--0---x-x----|
A|------------------------------------------|
E|------------------------------------------|
Добавлено: 17.06.2016
Другие материалы по этой песне:
  • Аккорды и текст

Страница создана 17.06.2016
http://primanota.ru/legio-urbana/teatro-dos-vampiros-chords.htm
Привет, Гость.
Предлагаем пройти революционный курс по гитаре.
Подарок от PrimaNota.Ru, забирай!