PrimaNota.ru - самый крупный в мире бесплатный архив песенных текстов, аккордов, табулатур и нот


Legio Urbana - Ainda Cedo - бас-таба, видео

Регистрация Запомнить меня
Войти через:  Facebook Google Twitter Vk Yandex Mail.ru

Legio Urbana - Ainda Cedo - бас-таба, видео

Печатать
Просмотров: 129
Bom, a música original fica nisso apenas, o tempo todo.

G-----------------------------------------------------|
D-5-5-5-5-5-5-5-5-3-3-3-3-3-3-3-3---------------------|
A-----------------------------------------------------|
E-----------------------------------------------------|

G-----------------------------------------------------|
D-----------------------------------------------------|
A-0-0-0-0-0-0-0-0-0-0-0-0-0-0-0-0---------------------|
E-----------------------------------------------------|

Eu gosto de dar uma variaçãozinha, então, eu toco desse jeito:

(Introdução - Só baixo - 2x)

G-7-7-7-7-7-7-7-7-5-5-5-5-5-5-5-5-2-2-2-2-2-2-2-2-2---|
D-----------------------------------------------------|
A-----------------------------------------------------|
E-----------------------------------------------------|

G-2-2-2-2-2-2-2-2-------------------------------------|
D-----------------------------------------------------|
A-----------------------------------------------------|
E-----------------------------------------------------|

(Entra(m) Guitarra(s)): 2x

G-----------------------------------------------------|
D-5-5-5-5-5-5-5-5-3-3-3-3-3-3-3-3---------------------|
A-----------------------------------------------------|
E-----------------------------------------------------|

G-----------------------------------------------------|
D-----------------------------------------------------|
A-0-0-0-0-0-0-0-0-0-0-0-0-0-0-0-0---------------------|
E-----------------------------------------------------|


Faz isso de "Uma menina me ensinou"... Até "E não quis me separar"...:

G-----19-----19-----17----17----14-----14----14---14--|
D-----------------------------------------------------|
A--17----17-----15-----15----12----12-----12----12----|
E-----------------------------------------------------|

Agora, faz isso de "Ela também estava perdida"... até "Não tinha mais ninguém"...:

G-7-7-7-7-7-7-7-7-5-5-5-5-5-5-5-5-2-2-2-2-2-2-2-2-2---|
D-----------------------------------------------------|
A-----------------------------------------------------|
E-----------------------------------------------------|

G-2-2-2-2-2-2-2-2-------------------------------------|
D-----------------------------------------------------|
A-----------------------------------------------------|
E-----------------------------------------------------|

Refrão ("Eu dizia ainda é cedo"...) - 4x:

G-----------------------------------------------------|
D-5-5-5-5-5-5-5-5-3-3-3-3-3-3-3-3---------------------|
A-----------------------------------------------------|
E-----------------------------------------------------|

G-----------------------------------------------------|
D-----------------------------------------------------|
A-0-0-0-0-0-0-0-0-0-0-0-0-0-0-0-0---------------------|
E-----------------------------------------------------|


"Sei que ela terminou"... à "Nunca ser dito por ninguém"...:

G-----19-----19-----17----17----14-----14----14---14--|
D-----------------------------------------------------|
A--17----17-----15-----15----12----12-----12----12----|
E-----------------------------------------------------|


"Ela me disse eu não sei"... até o 1º "Eu dizia ainda é cedo"...:


G-7-7-7-7-7-7-7-7-5-5-5-5-5-5-5-5-2-2-2-2-2-2-2-2-2---|
D-----------------------------------------------------|
A-----------------------------------------------------|
E-----------------------------------------------------|

G-2-2-2-2-2-2-2-2-------------------------------------|
D-----------------------------------------------------|
A-----------------------------------------------------|
E-----------------------------------------------------|


Refrão (a partir do 2º "Eu dizia ainda é cedo"...)4x (com a letra) e mais 1x sem letra:

G-----------------------------------------------------|
D-5-5-5-5-5-5-5-5-3-3-3-3-3-3-3-3---------------------|
A-----------------------------------------------------|
E-----------------------------------------------------|

G-----------------------------------------------------|
D-----------------------------------------------------|
A-0-0-0-0-0-0-0-0-0-0-0-0-0-0-0-0---------------------|
E-----------------------------------------------------|

Encerra com um slapzinho em:

G-7~~~-5~~~-2~~~--------------------------------------|
D-----------------------------------------------------|
A-----------------------------------------------------|
E-----------------------------------------------------|


Bom, quem quiser seguir o origina, faça o que tá no comecinho... Mas quem quiser dar uma 
brincada, segue a minha. Sério, fica muito legal. Abraços! ;)
Добавлено: 20.03.2012
Другие материалы по этой песне:
  • Аккорды и текст

Страница создана 20.03.2012
http://primanota.ru/legio-urbana/ainda-cedo-chords.htm
Привет, Гость.
Предлагаем пройти революционный курс по гитаре.
Подарок от PrimaNota.Ru, забирай!