PrimaNota.ru - самый крупный в мире бесплатный архив песенных текстов, аккордов, табулатур и нот


Legiao Urbana - Pais E Filhos - аккорды и текст, видео

Регистрация Запомнить меня
Войти через:  Facebook Google Twitter Vk Yandex Mail.ru

Legiao Urbana - Pais E Filhos - аккорды и текст, видео

Печатать
Просмотров: 87
Pais E Filhos
Legiao Urbana
Tom: G
                
(riff intro)

(1ª parte)

E|--------------8-----5---7------7----|
B|-1--3--5----------------------------|
G|---------0-------0----0------0---0--|
D|-----------0--------4------0--------|
A|-0--2--3----------------------------| (tocado na intro e na 1² estrofe)
E|------------------------------------|


(riff intro)

Estátuas e cofres
E paredes pintadas
Ninguém sabe
O que aconteceu...

Ela se jogou da janela
Do quinto andar
Nada é fácil de entender...

(dedilhado - 2ª parte)


E|-3----3---3---3----3---3----0--0--0----2---2---2-----|
B|-1--1---1---1-0--0---0---0--1-1--1--1--3-3---3--3----|
G|-2------------0-------------0----------4-------------|
D|-3------------2-------------2----------4-------------|
A|----------------------------3----------2-------------|
E|-----------------------------------------------------|


(dedilhado - 3ª parte)


E|-3---3---3---3----3---3----5---5---5---5---5--5------|
B|-1-1---1---1-1--1---1---1--3--3--3---3-3-3---3--3----|
G|-0-----------0-------------2-----------2-------------|
D|-2-----------2-------------0-----------0-------------|
A|-0-----------0---------------------------------------|
E|-----------------------------------------------------|


F9     Em   C
Dorme agora
Bm      Am7
Uuummhum!

É só o vento
    D
Lá fora...
C       D
Quero colo!
      G
Vou fugir de casa
      C         D
Posso dormir aqui
       G
Com vocês
  C          D
Estou com medo
        G
Tive um pesadelo
   C         D
Só vou voltar
          G     G    C   D
Depois das três...

F9   Em           C
Meu filho vai ter
        Bm
Nome de santo
   Am7
Uummhum!

Quero o nome
    D
Mais bonito...

      G            C
É preciso amar haahaa as pessoas
     Em                  C
Como se não houvesse amanhã
           G          C
Por que se você parar
           Em7
Prá pensar
               C
Na verdade não há...

    G
Me diz, por que que o céu é azul

Explica a grande fúria do mundo
G
São meus filhos

Que tomam conta de mim...

                    G
Eu moro com a minha mãe
Mas meu pai vem me visitar
Eu moro na rua
G
Não tenho ninguém
Eu moro em qualquer lugar...

 G
Já morei em tanta casa

Que nem me lembro mais
   G           C   F9   Em
Eu moro com os meus pais
C   Bm   Am7  D
Huhuhuhu!...ouh! ouh!...

      G       C
É preciso amar as pessoas
     Em                  C
Como se não houvesse amanhã
           G          C
Por que se você parar
           Em
Prá pensar
               C
Na verdade não há...

G                  C
Sou uma gota d'água
Em                 C
Sou um grão de areia
         G
Você me diz que seus pais
       C
Não entendem
      Em                   C
Mas você não entende seus pais...

            G
Você culpa seus pais por tudo
       G
Isso é absurdo
         G      G
São crianças como você
              G   G
O que você vai ser
                    G
Quando você crescer?

(solo final 2x)

E|-------8---------10----------7/-10--12-10-------8--------|
B|--------8----------10------8--/-10----------------8------|
G|-7-7/9----9-9/11------11\7----/-10--------7-7/9----------|
D|---------------------------------------------------------|
A|---------------------------------------------------------|
E|---------------------------------------------------------|
Добавлено: 28.05.2012
Другие материалы по этой песне:

Страница создана 26.02.2012
http://primanota.ru/legiao-urbana/pais-e-filhos-chords.htm
Привет, Гость.
Предлагаем пройти революционный курс по гитаре.
Подарок от PrimaNota.Ru, забирай!