PrimaNota.ru - самый крупный в мире бесплатный архив песенных текстов, аккордов, табулатур и нот


Leftover Crack - Via Sin Dios - таба, видео

Регистрация Запомнить меня
Войти через:  Facebook Google Twitter Vk Yandex Mail.ru

Leftover Crack - Via Sin Dios - таба, видео

Печатать
Просмотров: 64
----------------------------------------------------------------------------------
|                            VIA SIN DIOS                                        |
----------------------------------------------------------------------------------

Artist - Leftover Crack						Key
Song - Via Sin Dios						---
Album - Fuck World Trade
								o = palm mute

[INTRO]


guitar 1

e-------------------------------------------------------------------------------------------|
b-------------------------------------------------------------------------------------------|
g------------7-7-7-7-7--9-9-9-9-9-9-9-9-9-9-------------5-5-5-5-5---------------------------|
d-5-5-5-5-5--7-7-7-7-7--9-9-9-9-9-9-9-9-9-9--9-9-9-9-9--5-5-5-5-5--5-5-5-5-5-5-5-5-5-5------|
a-5-5-5-5-5--5-5-5-5-5--7-7-7-7-7-7-7-7-7-7--9-9-9-9-9--3-3-3-3-3--5-5-5-5-5-5-5-5-5-5------|
E-3-3-3-3-3----------------------------------7-7-7-7-7-------------3-3-3-3-3-3-3-3-3-3------|
                                                                   o o o o o o o o o o

guitar2

e-------------------------------------------------------------------------------------------|
b-------------------------------------------------------------------------------------------|
g-------------------------------------------------------------------------------------------|
e------------------------------------------------------------------5-5-5-5-5-5-5-5-5-5------|
a------------------------------------------------------------------5-5-5-5-5-5-5-5-5-5------|
E------------------------------------------------------------------3-3-3-3-3-3-3-3-3-3------|
                                                                   o o o o o o o o o o

guitar1


e-------------------------------------------------------------------------------------------|
b-------------------------------------------------------------------------------------------|
g-12-12-12-12-12--7-7-7-7-7--9-9-9-9-9-9-9-9-9-9--4-4-4-4-4--5-5-5-5-5----------------------|
d-12-12-12-12-12--7-7-7-7-7--9-9-9-9-9-9-9-9-9-9--4-4-4-4-4--5-5-5-5-5--5-5-5-5-5-5-5-5-5-5-|
a-10-10-10-10-10--5-5-5-5-5--7-7-7-7-7-7-7-7-7-7--2-2-2-2-2--3-3-3-3-3--5-5-5-5-5-5-5-5-5-5-|
E-----------------------------------------------------------------------3-3-3-3-3-3-3-3-3-3-|
                                                                        o o o o o o o o oo

guitar 2

e-------------------------------------------------------------------------------------------|
b-------------------------------------------------------------------------------------------|
g------------7----------9-------------------------------5-----------------------------------|
d-5----------7----------9--------------------9----------5----------5-5-5-5-5-5-5-5-5-5------|
a-5----------5----------7--------------------9----------3----------5-5-5-5-5-5-5-5-5-5------|
E-3------------------------------------------7---------------------3-3-3-3-3-3-3-3-3-3------|
                                                                   o o o o o o o o o o

[Verse 1]


guitar 1

e-------------------------------------------------------------------------------------------|
b-------------------------------------------------------------------------------------------|
g-12-12-12-12-12--7-7-7-7-7--9-9-9-9-9-9-9-9-9-9--4-4-4-4-4--5-5-5-5-5----------------------|
d-12-12-12-12-12--7-7-7-7-7--9-9-9-9-9-9-9-9-9-9--4-4-4-4-4--5-5-5-5-5--5-5-5-5-5-5-5-5-5-5-|
a-10-10-10-10-10--5-5-5-5-5--7-7-7-7-7-7-7-7-7-7--2-2-2-2-2--3-3-3-3-3--5-5-5-5-5-5-5-5-5-5-|
E-----------------------------------------------------------------------3-3-3-3-3-3-3-3-3-3-|
                                                                        o o o o o o o o oo

guitar 2

e-------------------------------------------------------------------------------------------|
b-------------------------------------------------------------------------------------------|
g------------7-7-7-7-7--9-9-9-9-9-9-9-9-9-9-------------5-5-5-5-5---------------------------|
d-5-5-5-5-5--7-7-7-7-7--9-9-9-9-9-9-9-9-9-9--9-9-9-9-9--5-5-5-5-5--5-5-5-5-5-5-5-5-5-5------|
a-5-5-5-5-5--5-5-5-5-5--7-7-7-7-7-7-7-7-7-7--9-9-9-9-9--3-3-3-3-3--5-5-5-5-5-5-5-5-5-5------|
E-3-3-3-3-3----------------------------------7-7-7-7-7-------------3-3-3-3-3-3-3-3-3-3------|
                                                                   o o o o o o o o o o

guitar 1

e--------------------------------------------------------------------------------------------|
b--------------------------------------------------------------------------------------------|
g-1212121212--1414141414--16161616161616161616--1919191919--1717171717--16161616161616161616-|
e--------------------------------------------------------------------------------------------|
a-1010101010--1212121212--14141414141414141414--1717171717--1515151515--14141414141414141414-|
E--------------------------------------------------------------------------------------------|


guitar 2

e-------------------------------------------------------------------------------------------|
b-------------------------------------------------------------------------------------------|
g------------7-7-7-7-7--9-9-9-9-9-9-9-9-9-9-------------5-5-5-5-5---------------------------|
d-5-5-5-5-5--7-7-7-7-7--9-9-9-9-9-9-9-9-9-9--9-9-9-9-9--5-5-5-5-5--5-5-5-5-5-5-5-5-5-5------|
a-5-5-5-5-5--5-5-5-5-5--7-7-7-7-7-7-7-7-7-7--9-9-9-9-9--3-3-3-3-3--5-5-5-5-5-5-5-5-5-5------|
E-3-3-3-3-3----------------------------------7-7-7-7-7-------------3-3-3-3-3-3-3-3-3-3------|
                                                                   o o o o o o o o o o

[Chorus]


guitar 1

e-------------------------------------------------------------------------------------------|
b-------------------------------------------------------------------------------------------|
g-4-4-4-4-4--5-5-5-5-5--1212121212121211-12--4-4-4-4-4--5-5-5-5-5--1919191919191921-19------|
e-4-4-4-4-4--5-5-5-5-5-------------------12--4-4-4-4-4--5-5-5-5-5-------------------19------|
a-2-2-2-2-2--3-3-3-3-3--101010101010109--10--2-2-2-2-2--3-3-3-3-3--1717171717171719-17------|
E-------------------------------------------------------------------------------------------|
  o o o o    o o o o                         o o o o    o o o o

guitar 2

e-------------------------------------------------------------------------------------------|
b-------------------------------------------------------------------------------------------|
g-5-5-5-5-5--5-5-5-5-5------------------------4-4-4-4-4--5-5-5-5-5--------------------------|
e-4-4-4-4-4--5-5-5-5-5--6-6-6-6-6--5-5-5-5-5--4-4-4-4-4--5-5-5-5-5--6-6-6-6-6--5-5-5-5-5----|
a-2-2-2-2-2--3-3-3-3-3--6-6-6-6-6--5-5-5-5-5--2-2-2-2-2--3-3-3-3-3--6-6-6-6-6--5-5-5-5-5----|
E-----------------------4-4-4-4-4--3-3-3-3-3------------------------4-4-4-4-4--3-3-3-3-3----|
  o o o o    o o o o    o o o o    o o o o    o o o o    o o o o    o o o o    o   o

guitar 1

e-------------------------------------------------------------------------------------------|
b-------------------------------------------------------------------------------------------|
g-4-4-4-4-4--5-5-5-5-5--1212121212121211-12--4-4-4-4-4--5-5-5-5-5---------------------------|
e-4-4-4-4-4--5-5-5-5-5-------------------12--4-4-4-4-4--5-5-5-5-5---------------------------|
a-2-2-2-2-2--3-3-3-3-3--101010101010109--10--2-2-2-2-2--3-3-3-3-3---------------------------|
E-------------------------------------------------------------------------------------------|
  o o o o    o o o o                         o o o o    o o o o

guitar 2

e-------------------------------------------------------------------------------------------|
b-------------------------------------------------------------------------------------------|
g-5-5-5-5-5--5-5-5-5-5------------------------4-4-4-4-4--5-5-5-5-5--------------------------|
e-4-4-4-4-4--5-5-5-5-5--6-6-6-6-6--5-5-5-5-5--4-4-4-4-4--5-5-5-5-5--------------------------|
a-2-2-2-2-2--3-3-3-3-3--6-6-6-6-6--5-5-5-5-5--2-2-2-2-2--3-3-3-3-3--------------------------|
E-----------------------4-4-4-4-4--3-3-3-3-3------------------------------------------------|
  o o o o    o o o o    o o o o    o o o o    o o o o    o o o o

[Verse 2]

guitar 1 & 2

e-------------------------------------------------------------------------------------------|
b-------------------------------------------------------------------------------------------|
g-------------------------------------------------------------------------------------------|
e-5-5-5-5-5-5-5-5-5-5--7-7-7-7-7-7-7-7-7-7--9-9-9-9-9-9-9-9-9-9--1111111111111111111--------|
a-5-5-5-5-5-5-5-5-5-5--7-7-7-7-7-7-7-7-7-7--9-9-9-9-9-9-9-9-9-9--1111111111111111111--------|
E-3-3-3-3-3-3-3-3-3-3--5-5-5-5-5-5-5-5-5-5--7-7-7-7-7-7-7-7-7-7--9-9-9-9-9-9-9-9-9-9--------|
  o o o o o o o o o o  o o o o o o o o o o  o o o o o o o o o o  o o o o o o o o o o


guitar 1

e-------------------------------------------------------------------------------------------|
b-------------------------------------------------------------------------------------------|
g-12-12-12-12-12--7-7-7-7-7--9-9-9-9-9-9-9-9-9-9--4-4-4-4-4--5-5-5-5-5----------------------|
d-12-12-12-12-12--7-7-7-7-7--9-9-9-9-9-9-9-9-9-9--4-4-4-4-4--5-5-5-5-5--5-5-5-5-5-5-5-5-5-5-|
a-10-10-10-10-10--5-5-5-5-5--7-7-7-7-7-7-7-7-7-7--2-2-2-2-2--3-3-3-3-3--5-5-5-5-5-5-5-5-5-5-|
E-----------------------------------------------------------------------3-3-3-3-3-3-3-3-3-3-|
                                                                        o o o o o o o o oo

guitar 2

e-------------------------------------------------------------------------------------------|
b-------------------------------------------------------------------------------------------|
g------------7-7-7-7-7--9-9-9-9-9-9-9-9-9-9-------------5-5-5-5-5---------------------------|
d-5-5-5-5-5--7-7-7-7-7--9-9-9-9-9-9-9-9-9-9--9-9-9-9-9--5-5-5-5-5--5-5-5-5-5-5-5-5-5-5------|
a-5-5-5-5-5--5-5-5-5-5--7-7-7-7-7-7-7-7-7-7--9-9-9-9-9--3-3-3-3-3--5-5-5-5-5-5-5-5-5-5------|
E-3-3-3-3-3----------------------------------7-7-7-7-7-------------3-3-3-3-3-3-3-3-3-3------|
                                                                   o o o o o o o o o o

guitar 1

e--------------------------------------------------------------------------------------------|
b--------------------------------------------------------------------------------------------|
g-1212121212--1414141414--16161616161616161616--1919191919--1717171717--16161616161616161616-|
e--------------------------------------------------------------------------------------------|
a-1010101010--1212121212--14141414141414141414--1717171717--1515151515--14141414141414141414-|
E--------------------------------------------------------------------------------------------|


guitar 2

e-------------------------------------------------------------------------------------------|
b-------------------------------------------------------------------------------------------|
g------------7-7-7-7-7--9-9-9-9-9-9-9-9-9-9-------------5-5-5-5-5---------------------------|
d-5-5-5-5-5--7-7-7-7-7--9-9-9-9-9-9-9-9-9-9--9-9-9-9-9--5-5-5-5-5--5-5-5-5-5-5-5-5-5-5------|
a-5-5-5-5-5--5-5-5-5-5--7-7-7-7-7-7-7-7-7-7--9-9-9-9-9--3-3-3-3-3--5-5-5-5-5-5-5-5-5-5------|
E-3-3-3-3-3----------------------------------7-7-7-7-7-------------3-3-3-3-3-3-3-3-3-3------|
                                                                   o o o o o o o o o o

[Chorus]


guitar 1

e-------------------------------------------------------------------------------------------|
b-------------------------------------------------------------------------------------------|
g-4-4-4-4-4--5-5-5-5-5--1212121212121211-12--4-4-4-4-4--5-5-5-5-5--1919191919191921-19------|
e-4-4-4-4-4--5-5-5-5-5-------------------12--4-4-4-4-4--5-5-5-5-5-------------------19------|
a-2-2-2-2-2--3-3-3-3-3--101010101010109--10--2-2-2-2-2--3-3-3-3-3--1717171717171719-17------|
E-------------------------------------------------------------------------------------------|
  o o o o    o o o o                         o o o o    o o o o

guitar 2

e-------------------------------------------------------------------------------------------|
b-------------------------------------------------------------------------------------------|
g-5-5-5-5-5--5-5-5-5-5------------------------4-4-4-4-4--5-5-5-5-5--------------------------|
e-4-4-4-4-4--5-5-5-5-5--6-6-6-6-6--5-5-5-5-5--4-4-4-4-4--5-5-5-5-5--6-6-6-6-6--5-5-5-5-5----|
a-2-2-2-2-2--3-3-3-3-3--6-6-6-6-6--5-5-5-5-5--2-2-2-2-2--3-3-3-3-3--6-6-6-6-6--5-5-5-5-5----|
E-----------------------4-4-4-4-4--3-3-3-3-3------------------------4-4-4-4-4--3-3-3-3-3----|
  o o o o    o o o o    o o o o    o o o o    o o o o    o o o o    o o o o    o   o

guitar 1

e-------------------------------------------------------------------------------------------|
b-------------------------------------------------------------------------------------------|
g-4-4-4-4-4--5-5-5-5-5--1212121212121211-12--4-4-4-4-4--5-5-5-5-5---------------------------|
e-4-4-4-4-4--5-5-5-5-5-------------------12--4-4-4-4-4--5-5-5-5-5---------------------------|
a-2-2-2-2-2--3-3-3-3-3--101010101010109--10--2-2-2-2-2--3-3-3-3-3---------------------------|
E-------------------------------------------------------------------------------------------|
  o o o o    o o o o                         o o o o    o o o o

guitar 2

e-------------------------------------------------------------------------------------------|
b-------------------------------------------------------------------------------------------|
g-5-5-5-5-5--5-5-5-5-5------------------------4-4-4-4-4--5-5-5-5-5--------------------------|
e-4-4-4-4-4--5-5-5-5-5--6-6-6-6-6--5-5-5-5-5--4-4-4-4-4--5-5-5-5-5--------------------------|
a-2-2-2-2-2--3-3-3-3-3--6-6-6-6-6--5-5-5-5-5--2-2-2-2-2--3-3-3-3-3--------------------------|
E-----------------------4-4-4-4-4--3-3-3-3-3------------------------------------------------|
  o o o o    o o o o    o o o o    o o o o    o o o o    o o o o

[Bridge]


guitar 1 & 2

e-------------------------------------------------------------------------------------------|
b-------------------------------------------------------------------------------------------|
g-------------------------------------------------------------------------------------------|
e-5-5-5-5-5-5-5-5-5-5--7-7-7-7-7-7-7-7-7-7--9-9-9-9-9-9-9-9-9-9--1111111111111111111--------|
a-5-5-5-5-5-5-5-5-5-5--7-7-7-7-7-7-7-7-7-7--9-9-9-9-9-9-9-9-9-9--1111111111111111111--------|
E-3-3-3-3-3-3-3-3-3-3--5-5-5-5-5-5-5-5-5-5--7-7-7-7-7-7-7-7-7-7--9-9-9-9-9-9-9-9-9-9--------|
  o o o o o o o o o o  o o o o o o o o o o  o o o o o o o o o o  o o o o o o o o o o

guitar 1
                                x2
e---------------------------------|---------------------------------------------------------|
b---------------------------------|---------------------------------------------------------|
g-12------14------16------17------|-21------19------17------16------14------16------11------|
e---[x7]----[x7]----[x7]----[x7]--|---[x7]----[x7]----[x7]----[x7]----[x7]----[x7]----[x7]--|
a-10------12------14------15------|-19------17------15------14------12------14------9-------|
E---------------------------------|---------------------------------------------------------|

guitar 2

e-------------------------------------------------------------------------------------------|
b-------------------------------------------------------------------------------------------|
g-------------------------------------------------------------------------------------------|

x2
a-5-5-5-5-5-5-5---7-7-7-7-7-7-7---9-9-9-9-9-9-9---11111111111111----------------------------|
E-3-3-3-3-3-3-3---5-5-5-5-5-5-5---7-7-7-7-7-7-7---9-9-9-9-9-9-9-----------------------------|
  o o o o o o     o o o o o o     o o o o o o     o o o o o o

[Solo]


guitar 1 - tremolo picking

e-13-17-13-15-13-17-13-15-13-17-13-15-13-17-13-15-13-18b-18b-13-15-13-15-13-17-13-15-13-17--|
b-------------------------------------------------------------------------------------------|
g-------------------------------------------------------------------------------------------|
e-------------------------------------------------------------------------------------------|
a-------------------------------------------------------------------------------------------|
E-------------------------------------------------------------------------------------------|

e-13-15-13----------------------------------------------------------------------------------|
b-------------------------------------------------------------------------------------------|
g-------------------------------------------------------------------------------------------|
e-------------------------------------------------------------------------------------------|
a-------------------------------------------------------------------------------------------|
E-------------------------------------------------------------------------------------------|

guitar 2

e-------------------------------------------------------------------------------------------|
b-------------------------------------------------------------------------------------------|
g------------7-7-7-7-7--9-9-9-9-9-9-9-9-9-9-------------5-5-5-5-5---------------------------|
d-5-5-5-5-5--7-7-7-7-7--9-9-9-9-9-9-9-9-9-9--9-9-9-9-9--5-5-5-5-5--5-5-5-5-5-5-5-5-5-5------|
a-5-5-5-5-5--5-5-5-5-5--7-7-7-7-7-7-7-7-7-7--9-9-9-9-9--3-3-3-3-3--5-5-5-5-5-5-5-5-5-5------|
E-3-3-3-3-3----------------------------------7-7-7-7-7-------------3-3-3-3-3-3-3-3-3-3------|
                                                                   o o o o o o o o o o

[Outro]


guitar 1

e-------------------------------------------------------------------------------------------|
b-------------------------------------------------------------------------------------------|
g-12-12-12-12-12--7-7-7-7-7--9-9-9-9-9-9-9-9-9-9--4-4-4-4-4--5-5-5-5-5----------------------|
d-12-12-12-12-12--7-7-7-7-7--9-9-9-9-9-9-9-9-9-9--4-4-4-4-4--5-5-5-5-5--5-5-5-5-5-5-5-5-5-5-|
a-10-10-10-10-10--5-5-5-5-5--7-7-7-7-7-7-7-7-7-7--2-2-2-2-2--3-3-3-3-3--5-5-5-5-5-5-5-5-5-5-|
E-----------------------------------------------------------------------3-3-3-3-3-3-3-3-3-3-|
                                                                        o o o o o o o o oo

guitar 2

e-------------------------------------------------------------------------------------------|
b-------------------------------------------------------------------------------------------|
g------------7----------9-------------------------------5-----------------------------------|
d-5----------7----------9--------------------9----------5----------5-5-5-5-5-5-5-5-5-5------|
a-5----------5----------7--------------------9----------3----------5-5-5-5-5-5-5-5-5-5------|
E-3------------------------------------------7---------------------3-3-3-3-3-3-3-3-3-3------|
                                                                   o o o o o o o o o
Добавлено: 17.06.2013
Другие материалы по этой песне:
  • Аккорды и текст

Страница создана 17.06.2013
http://primanota.ru/leftover-crack/via-sin-dios-chords.htm
Привет, Гость.
Предлагаем пройти революционный курс по гитаре.
Подарок от PrimaNota.Ru, забирай!