PrimaNota.ru - самый крупный в мире бесплатный архив песенных текстов, аккордов, табулатур и нот


Leftover Crack - Via sin dias - таба, видео

Регистрация Запомнить меня
Войти через:  Facebook Google Twitter Vk Yandex Mail.ru

Leftover Crack - Via sin dias - таба, видео

Печатать
Просмотров: 80
Уроки эстрадного вокала в Санкт-Петербурге


Leftover Crack - Via Sin Dias

verse1:
E------------------------------------------------------------------------------------------------------------------------------------------------
B------------------------------------------------------------------------------------------------------------------------------------------------
G--9--9-9--9-9-9-----------------------5--5-5--5-5-5--5-5-----2--2-2--2-2-2---4--4-4--4-4-4---------------------------------- (x4)
D--9--9-9--9-9-9---9--9-9--9-9-9---5--5-5--5-5-5--5-5-----2--2-2--2-2-2---4--4-4--4-4-4--5555555555555555----
A--7--7-7--7-7-7---9--9-9--9-9-9---3--3-3--3-3-3--3-3-----0--0-0--0-0-0---2--2-2--2-2-2--5555555555555555---
E-----------------------7--7-7--7-7-7-----------------------------------------------------------------------3333333333333333----
                                                                                                            PM.............................

chorus:
E------------------------------------------------------------------------------------------------------------------------------------------
B------------------------------------------------------------------------------------------------------------------------------------------
G--5555-5--6666-6---11111111--1010-11----5555-5--6666-6----1313131313131313-12121212-13------- 
D--5555-5--6666-6----XXXXXXXX-XXXX-X------5555-5--6666-6----XXXXXXXXXXXXXXXX-XXXXXXXX-X---------
A--3333-3--4444-4----99999999-8888-9------3333-3--4444-4----1111111111111111-10101010-11-------
E------------------------------------------------------------------------------------------------------------------------------------------
PM........       .........
	-----------------------------------------------------------------------------
	-----------------------------------------------------------------------------
	--5555-5--6666-6---11111111--1010-11-5555-5--6666-6-
	--5555-5--6666-6----XXXXXXXX-XXXX-X---5555-5--6666-6-
	--3333-3--4444-4----99999999-8888-9---3333-3--4444-4-
	-----------------------------------------------------------------------------
        PM........     ......                                  ........     .......

bridge:
E-----------------------------------------------------------------------------------------------------------------------
B-----------------------------------------------------------------------------------------------------------------------
G-----------------------------------------------------------------------------------------------------------------------
D--5555555555555555-6666666666666666-888888888888888-99999999-11111111---
A--5555555555555555-6666666666666666-888888888888888-99999999-11111111---
E--3333333333333333-4444444444444444-666666666666666-77777777-99999999---
PM.....................................  .....................................  ..................................  .................  ...................

(verse 1) (x2)

(chorus)

(bridge) (x2)

E-------------------------------------------------------------------------------------------
B-------------------------------------------------------------------------------------------
G--5555555555-5-6666666666-6-6-8888888888-8-99999999-9-11-
D--5555555555-5-6666666666-6-6-8888888888-8-99999999-9-11-(x2)
A--3333333333-3-4444444444-4-4-6666666666-6-77777777-7-9--
E------------------------------------------------------------------------------------------

E--12-1212-1515-1212-1313-1212-1515-1212-1313-1212-1515-1212-1313-1212-1515-1212-1313-1212-15-13-12121212-15--
B----------------------------------------------------------------------------------------------------------------------------------------------------------------------------
G----------------------------------------------------------------------------------------------------------------------------------------------------------------------------
D----------------------------------------------------------------------------------------------------------------------------------------------------------------------------
A----------------------------------------------------------------------------------------------------------------------------------------------------------------------------
E----------------------------------------------------------------------------------------------------------------------------------------------------------------------------

        -15151515-1212-1313-1010-1212-
        ------------------------------------------------
        ------------------------------------------------
        ------------------------------------------------
        ------------------------------------------------
        ------------------------------------------------

(verse 1) (x1)


Добавлено: 21.12.2013
Вам также может быть интересно:
Другие материалы по этой песне:
  • Аккорды и текст

Страница создана 21.12.2013
http://primanota.ru/leftover-crack/via-sin-dias-chords.htm
Привет, Гость.
Предлагаем пройти революционный курс по гитаре.
Подарок от PrimaNota.Ru, забирай!