PrimaNota.ru - самый крупный в мире бесплатный архив песенных текстов, аккордов, табулатур и нот


Leftover Crack - The Drug Song - текст песни, бас-таба, видео

Регистрация Запомнить меня
Войти через:  Facebook Google Twitter Vk Yandex Mail.ru

Leftover Crack - The Drug Song - текст песни, бас-таба, видео

Печатать
Просмотров: 126
Crack Rock Steady Seven - The Drug Song

verse:
--------0---0----------0----0----|
-7--7----0----2----2----0--------|
---7--------------2--------------|
---------------------------------|

--------0---0----------0----0----|
-7--7----0----2----2----0--------|
---7--------------2--------------|
---------------------------------|

chorus:
---------------------------------|
---------------------------------|
3-5-7-9--------------------------|
---------------------------------|
Добавлено: 23.09.2013
Другие материалы по этой песне:
  • Аккорды и текст

Страница создана 06.06.2012
http://primanota.ru/leftover-crack/the-drug-song-chords.htm
Привет, Гость.
Предлагаем пройти революционный курс по гитаре.
Подарок от PrimaNota.Ru, забирай!