PrimaNota.ru - самый крупный в мире бесплатный архив песенных текстов, аккордов, табулатур и нот


Leftover Crack - Life Is Pain - текст песни, таба, видео

Регистрация Запомнить меня
Войти через:  Facebook Google Twitter Vk Yandex Mail.ru

Leftover Crack - Life Is Pain - текст песни, таба, видео

Печатать
Просмотров: 218
----------------------------------------------------------------------------
			     Leftover Crack - Life is Pain
----------------------------------------------------------------------------

Tabbed by:OpIvy16


This is the basically the whole song, missed out a few small things but sounds alright.


Intro:

Gu.1

e|-------------------------------------------------------------------------|
B|---------------------------------------------5---------------------------|
G|------5------------5------------5--------------5-----------------------|x4
D|----5---5---5----5---5---5----5---5---5----5-----5-----------------------|
A|--3-------3----2-------2----0-------0----0-------------------------------|
E|-------------------------------------------------------------------------|

then

Gu.1 repeat above twice more, then...

e|-----------------------3--------------------------3---3---|
B|----5------5----5-------------5------5------5---5---5---5-|
G|-----5-----------5------5------5------5------5------------|
D|---5--5---5----5--5---5--5---5--5---5--5---5--5-----------|
A|--3------3----0------0------3------2------0---------------|
E|----------------------------------------------------------|


Gu.2

e|-------------------------------------------------------------------------|
B|-------------------------------------------------------------------------|
G|--5--------5------------------------------------------------------------x4
D|--5--------5--------7--------3-------------------------------------------|
A|--3--------2--------7--------3-------------------------------------------|
E|--------------------5--------1-------------------------------------------|

Verse:

Gu.1 - sKA CHORDS

e|----------------------|
B|----5-------6---------|
G|----5-(X4)--5-(X4)----| X7
D|----5-------5---------|
A|----------------------|
E|----------------------|

then

e|------------------------------|
B|----5-5-5---6-6-6---8--8--8---|
G|----5-5-5---5-5-5---9--9--9---|
D|----5-5-5---5-5-5---10-10-10--|
A|------------------------------|
E|------------------------------|

Bridge:

Violin

e|--5--0--1----5--0---------|
B|-------------------1--0---|
G|--------------------------|
D|--------------------------|
A|--------------------------|
E|--------------------------|

Piano
???
e|-------------------------------|
B|---12-13-12-10-12-13-12-10-etc-|
G|-------------------------------|
D|-------------------------------|
A|-------------------------------|
E|-------------------------------|

Pre-chorus:

Gu.1

e|--------------------------------|
B|--------------------------------|
G|-----------------9-10-9-7-(x4)--|
D|--9-10-9-7-(x12)----------------|
A|--------------------------------|
E|--------------------------------|

Gu.2

e|----------|
B|----------|
G|---p.m.---|
D|---7------|
A|---7------|
E|---5------|

Chorus:

Gu.1

e|-----------------------------|
B|-----------------------------|
G|--9-10-9-7-(x14)--9-10--12---|
D|-----------------------------|
A|-----------------------------|
E|-----------------------------|

Gu.2

e|------------------------------------|
B|------------------------------------|
G|--------------------5-5-5-5-5-5-5-5-|x4
D|--7-7-7-7--3-3-3-3--5-5-5-5-5-5-5-5-|
A|--7-7-7-7--3-3-3-3--3-3-3-3-3-3-3-3-|
E|--5-5-5-5--1-1-1-1------------------|

Post-Chorus

Gu.1

e|-------------------------------------------------------------------------|
B|-------------------------------------------------------------------------|
G|--------------------------------7-7--7--9-9--9--7-7--7--9-9--9--10-10----|
D|--10-10--10--9-9--9--10-10--10-------------------------------------------|
A|-------------------------------------------------------------------------|
E|-------------------------------------------------------------------------|

Gu.2

e|-------------------------------------------------------------------------|
B|-------------------------------------------------------------------------|
G|--5--------5-------------------------------------------------------------|
D|--5--------5--------7--------3-------------------------------------------|
A|--3--------2--------7--------3-------------------------------------------|
E|--------------------5--------1-------------------------------------------|

then repeat verse...

Bridge #2:

Violin

e|--5--0--1----5--0------5--0--1--3--5--7----5--0--7-----------|
B|-------------------1-----------------------------------------|
G|-------------------------------------------------------------|
D|-------------------------------------------------------------|
A|-------------------------------------------------------------|
E|-------------------------------------------------------------|

Piano - same

then,

Pre-chorus,
Chorus,
Post Chorus,

then

Outro:

Gu.1

e|-------------------------------------------------------------------------|
B|-------------------------------------------------------------------------|
G|--5--------5-------------------------------------------------------------|
D|--5--------5--------7--------3------------till end-----------------------|
A|--3--------2--------7--------3-------------------------------------------|
E|--------------------5--------1-------------------------------------------|

Gu.2

e|-------------------------------------------------------------------------|
B|-------------------------------------------------------------------------|
G|--5--------7--------9--------12---14-------------------------------------|
D|-------------------------------------------------------------------------|
A|--3--------5--------7--------10---12-------------------------------------|
E|-------------------------------------------------------------------------|

then

e|---------------------------------------------------------|
B|---------------------------------------------------------|
G|--14--12--10--9--10--9--7--5-----------------------------|
D|---------------------------------------------------------|
A|--12--10--9---7--9---7--5--3-----------------------------|
E|---------------------------------------------------------|


============================================================================
Добавлено: 07.12.2013
Другие материалы по этой песне:
  • Аккорды и текст

Страница создана 15.04.2012
http://primanota.ru/leftover-crack/life-is-pain-chords.htm
Привет, Гость.
Предлагаем пройти революционный курс по гитаре.
Подарок от PrimaNota.Ru, забирай!