PrimaNota.ru - самый крупный в мире бесплатный архив песенных текстов, аккордов, табулатур и нот


Leftover Crack - Heroin Or Suicide - текст песни, таба, бас-таба, видео

Регистрация Запомнить меня
Войти через:  Facebook Google Twitter Vk Yandex Mail.ru

Leftover Crack - Heroin Or Suicide - текст песни, таба, бас-таба, видео

Печатать
Просмотров: 184
Verse 1
-------------------|
-------------------|
-------------------|
12--7--8--8--8--8--|
12--7--8--8--8--8--|
10--5--6--6--6--6--|

PM Verse2
--------------------------------------------------------|
--------------------------------------------------------|
--------------------------------------------------------|
--------------------------------------------------------|
--------------------------------------------------------|
--------------------------------------------------------|
-10X4--5X4--6X4--13X2-12X2---10X4--5X4--6X4--12X2-13X2--|

Chorus
---------------------------------------|
---------------------------------------|
---------9-99-999-6-66-666-------------|
7-77-777-9-99-999-6-66-666-6-66-666----|
7-77-777-7-77-777-4-44-444-6-66-666----|
5-55-555-------------------4-44-444----|

---------------------------------------|
---------------------------------------|
---------9-99-999-6-*pause*------------|
7-77-777-9-99-999-6--------6-66-666----|
7-77-777-7-77-777-4--------6-66-666----|
5-55-555-------------------4-44-444----|

Chorus2
--------------------------------------|
--------------------------------------|
-----9999-6666------------------------|
7777-9999-6666-6666-------------------|
7777-7777-4444-6666-------------------|
5555-----------4444-------------------|

PM TOP NOTES
--------------------------------------|
--------------------------------------|
-----9999-6666------------------------|
7777-----------6666-------------------|
--------------------------------------|
--------------------------------------|

Slow Picking
------------------------------------------|
------------------------------------------|
------------------------------------------|
--7-8--7-8--7-8--7-8--7-8--7-8--7-8--7-8--|
------------------------------------------|
------------------------------------------|

--------------------------------------------|
--------------------------------------------|
--------------------------------------------|
7-8-10-8--7-8-10-8--7-8-10-8--7-8-10-8--8---|
--------------------------------------------|
--------------------------------------------|



Verse1 X 4 --stop on one note
PM Verse2 X 2
Verse1 X 8 --stop on one note
PM Verse2 X 2
Verse1 X 8 --stop on one note
Chorus X 4
PM TOP NOTES X 10
Chorus2 (palm muted) X 2

Slow Picking

*Pause*
Verse1 (fast) X 16


INFO--
This tab was edited and refurbished from the tab I learned from by 
I found the tab at: [http://www.hottesttabs.com].

Credit to him or her.
Добавлено: 17.10.2013
Другие материалы по этой песне:
  • Аккорды и текст

Страница создана 23.05.2012
http://primanota.ru/leftover-crack/heroin-or-suicide--chords.htm
Привет, Гость.
Предлагаем пройти революционный курс по гитаре.
Подарок от PrimaNota.Ru, забирай!