PrimaNota.ru - самый крупный в мире бесплатный архив песенных текстов, аккордов, табулатур и нот


Leftover Crack - Feed The Children (Book Of Lies) - текст песни, таба, видео

Регистрация Запомнить меня
Войти через:  Facebook Google Twitter Vk Yandex Mail.ru

Leftover Crack - Feed The Children (Book Of Lies) - текст песни, таба, видео

Печатать
Просмотров: 147
Feed the Children (Book of Lies) - Leftover Crack
Fuck World Trade - 2004 - Track 7
Tabbed by: Stephen Parsons - Stevopar@gmail.com

Chords (in case you dont know em)
    E       G#m  A  C#m  B
e|--7----4---4---5---4---7-------------------------------------------|
B|--9----5---4---5---5---7-------------------------------------------|
G|--9-or-4---4---6---6---8-------------------------------------------|
D|--9----6---6---7---6---9-------------------------------------------|
A|--7----7---6---7---4---9-------------------------------------------|
E|-----------4---5-------7-------------------------------------------|

||Verse Part I
|Guitar 1+2 - Listen to song for rythym, song starts by playing E, Clean
    E                G#m      A
You sow the seeds of endless chumps
    C#m                G#m   A
and reap the weak with bible thumps
    E                  G#m      A
you cross your t's and dot your eyes
   C#m                 G#m   A
to fill the world with vapid lies
     E                G#m     A
your judging ways are sick to death
     C#m            G#m    A
your ignorance and praying breath
    E             G#m      A
you profit from a confused land
     C#m               G#m
that toils and dies to understand

||Verse Part II
|Guitar 1+2 - Same as above except play with Ska rythym and end on A
we're born in pain and trapped in doom
our empty lives in empty rooms
the bible empties guilty minds
while cries for help face shutting blinds
these blind all scream for me to see
and disregard the ills of history
these fairy tales are memorized
and spew from mouths with empty eyes

||Breakdown
|Guitar 1 - Listen to the bass and the song for the rythym
Chords:
E A G#m A B

|Guitar 2 - Violin part - play in otcaves (Listen for the rythym)
e|----------------|----------------|----------------|----------------|
B|----------------|----------------|----------------|----------------|
G|9-------9-------|9-------11-9--8-|9-------9-------|9-------9--13-8-|
D|x-------x-------|x-------x--x--x-|x-------x-------|x-------x--x--x-|
A|7-------7-------|7-------9--7--6-|7-------7-------|7-------7--11-6-|
E|----------------|----------------|----------------|----------------|

e|----------------|----------------|----------------|----------------|
B|----------------|----------------|----------------|----------------|
G|9-------9-------|9-------11-9--8-|9-------9-------|9-------9-------|
D|x-------x-------|x-------x--x--x-|x-------x-------|x-------x-------|
A|7-------7-------|7-------9--7--6-|7-------7-------|7-------7-------|
E|----------------|----------------|----------------|----------------|
                           (No...)                           (Good...)
No feeling
good book stole it away

||Chorus, I guess???
|Guitar 1 - Power Chords
E
another preacher fakes
G#m         A
to focus on collection plates
E
another sheep to masterbate
G#m              A
in book of names by ivory gates
E
you're lost, you'll never find
G#m              A
a flock of sheep with rotting minds
E
the cost, is suffering
G#m            A
2000 years and more in time

|Guitar 2 - Play these octaves over the chords the whole time, listen for rythym
e|----------------|----------------|
B|----------------|----------------|
G|9-------8--9----|9-------11-13---|
D|x-------x--x----|x-------x--x----|
A|7-------6--9----|7-------9--11---|
E|----------------|----------------|

||Bridge Part???
|Guitar 1+2 - Clean, listen for rythym
    E                 C#m
and no one knows just what to do
    G#m                    A
and soon they'll set their sites on you
    E            C#m
the ignorant all hide in mass
        G#m                  A
(while) they cook the books; revise the past

||Verse Part II - Ska Rythym
the winners write the lying tombs
in a brave new world we're locked in "homes"
that pharmacize for docile proles
that digs us down in deeper holes
(the) progress comes in bloody waves
the sword swings broad for blood it craves
the pawns still toil for dying dreams
we televise their bloody screams

||Breakdown
such sadness
nothing to do but pray

||Chorus
another victim dies, another moral suicide
"no more book of lies -
instead of food," the hungry cried
you're lost, you'll never find
between the pews the rotting mind
no trust, the ties that bind
the little lies that burn and blind

||Bridge
(in) human nature's greed and lust
our hopes and dreams decay to dust
confusion from their lies is rife
we're crushed beneath our debts in life

||Verse Part II - Ska Rythym
i'm told i've made the wrong mistake
but what am i supposed to take
the fabric frays; the screws are loose
we're sick of lies and mind abuse

||Breakdown - Extra lead Volin that I haven't tabbed yet, sounds like Guitar
2 plays the violin octaves and Guitar I just strums an E chord (clean):
     E
e|---4---|
B|---5---|
G|---4---|
D|---6---|
A|---7---|
E|-------|

Here's the order of the song again:
Verse Part I
Verse Part II
Breakdown
Chorus
Bridge
Verse Part II
Breakdown
Chorus
Bridge
Verse Part II
Breakdown 'till end

Sounds right, but I still need the vioilin lead at the end. Question, comments,
corrections can be e-mailed to me, have fun.
Добавлено: 27.06.2013
Другие материалы по этой песне:
  • Аккорды и текст

Страница создана 28.07.2012
http://primanota.ru/leftover-crack/feed-the-children-book-of-lies-chords.htm
Привет, Гость.
Предлагаем пройти революционный курс по гитаре.
Подарок от PrimaNota.Ru, забирай!