PrimaNota.ru - самый крупный в мире бесплатный архив песенных текстов, аккордов, табулатур и нот


Leftover Crack - Atheist Anthem - текст песни, таба, бас-таба, видео

Регистрация Запомнить меня
Войти через:  Facebook Google Twitter Vk Yandex Mail.ru

Leftover Crack - Atheist Anthem - текст песни, таба, бас-таба, видео

Печатать
Просмотров: 154
Уроки эстрадного вокала в Санкт-Петербурге
Leftover Crack - Atheist Anthem
Mediocre Generica - 2001 - Track 3
Tabbed By: Stephen Parsons - Stevopar@gmail.com

||Intro - Whole thing and both guitars are palm-muted, x8. Played in straight eigth 
Can be easily played with one guitar, but transcribed here for 2.
|Guitar 1
e|----------------|----------------|
B|----------------|----------------|
G|----------------|----------------|
D|5555555544444444|2222222233333333|
A|----------------|----------------|
E|----------------|----------------|

|Guitar 2
e|----------------|----------------|
B|----------------|----------------|
G|4444444422222222|4444444422222222|
D|----------------|----------------|
A|----------------|----------------|
E|----------------|----------------|
During the last 2 bars both guitars slowly open up from plam-muting:
e|----------------|
B|----------------|
G|444444442---2~--|
D|222222223---3~--|
A|----------------|
E|----------------|

||Verse - Played in power chords. The G/F# chord is played as an F# power
chord. Listen to song for rythym.
|Guitar 1+2
     G              G/F#
From high up on yer crucifix
    Em              C
You preach about my triple 6
    G             G/F#
You spit about my this and that
    Em            F
And yank away yer welcome mat
       G            G/F#
With a coupon jesus christ will save
   E                    C
So don't you christians misbehave
     G               G/F#
'cuz santa makes the list himself
    E                   F
And he's rotting on the warehouse shelf

||Chorus
|Guitar 1 - x2
e|----------------|----------------|
B|----------------|----------------|
G|12~-----14~-----|16~------17-----|
D|x-------x-------|x--------x------|
A|10~-----12~-----|14~------15-----|
E|----------------|----------------|

|Guitar 2 - x2
e|----------------|----------------|
B|----------------|----------------|
G|12~-----11~-----|9~--------------|
D|x-------x-------|x-------10------|
A|10~-----9~------|7~------10------|
E|----------------|--------8-------|

And all the boys in the straight-edge scene
are in the basement huffing gasoline
Dead, dead, dead, dead
Yer god is dead to me!
And when the laws of God just make ya pissed
You better become an atheist
Dead, dead, dead, dead
Yer god is dead to me!

||Verse
When the greed of man is not appeased
All will rot sick and diseased
Once again the fallen towers
The Tortured death of every hour
And at the toll of the final bell
You lead the righteous down to hell
When all the world is dead by dawn
All I ask is bring me along!

||Chorus
And all the boys in the straight-edge scene
are in the basement huffing gasoline
Dead, dead, dead, dead
Yer god is dead to me!
And when the laws of God just make ya pissed
You better become an atheist
Dead, dead, dead, dead
Yer god is dead to me!

||Bridge
|Guitar 1+2 - Strum once, let ring
G            Em
Nuclear Apox spells your doom
         C           D
like the t.v. in yer living room

|Guitar 1 - Octaves
e|----------------|----------------|
B|----------------|----------------|
G|1214121112141211|12~-------------|
D|x-x-x-x-x-x-x-x-|x---------------|
A|1012109-1012109-|10~-------------|
E|----------------|----------------|

|Guitar 2 
G                 D
each bomb kills a million dead
   Em                  C
it melts your skin and implodes yer head

|Guitar 1 - x2

e|----------------|----------------|
B|----------------|----------------|
G|12--14--12--14--|12--14--16171614|
D|x---x---x---x---|x---x---x-x-x-x-|
A|10--12--10--12--|10--12--14151412|
E|----------------|----------------|

|Guitar 2
G                   Em
And now you get yer judgement day
C                         D
You think you'll float up then away
G                        D
But yer guilty just like everyone
Em                          C
You'll turn to ash when the burning's done

||Chorus
And all the boys in the straight-edge scene
are in the basement huffing gasoline
Dead, dead, dead, dead
Yer god is dead to me!
And when the laws of God just make ya pissed
You better become an atheist
Dead, dead, dead, dead
Yer god is dead to me!

||Lyrics over chrous for last time
There's a hunger within you
a tapeworm deep inside
or maybe it's just cancer
the doctors can't decide
but yer stomach keeps on growing
as yer body wastes away
and yer getting ill & weaker
every single fucking day

||Outro - Continuing from the last line of the extra lyrics over the chorus.
|Guitar 1+2 - Played in power chords, palm-muted
   G   G/F# Em  C
...day we   are alone
G  G/F# Em
we are  alone
Ends with C chord (??):
e|----------------|
B|----------------|
G|----------------|
D|22--22--5-------|
A|--33--335-------|
E|--------3-------|

Here's the order of the song again:
Intro
Verse
Chorus
Verse
Chorus
Bridge
Chorus (second time w/ outro lyrics)
Outro

That's it. If you have questions, comments, concerns, just e-mail me. Peace.
Добавлено: 22.07.2013
Другие материалы по этой песне:
  • Аккорды и текст

Страница создана 14.04.2012
http://primanota.ru/leftover-crack/atheist-anthem-chords.htm
Привет, Гость.
Предлагаем пройти революционный курс по гитаре.
Подарок от PrimaNota.Ru, забирай!