PrimaNota.ru - самый крупный в мире бесплатный архив песенных текстов, аккордов, табулатур и нот


Leftover Crack - And Out Comes The N-bomb - таба, видео

Регистрация Запомнить меня
Войти через:  Facebook Google Twitter Vk Yandex Mail.ru

Leftover Crack - And Out Comes The N-bomb - таба, видео

Печатать
Просмотров: 83
Уроки эстрадного вокала в Санкт-Петербурге
-------------------------------------------------------------------------------
...And Out Comes The N-Bomb! - Leftover Crack
Deadline
-------------------------------------------------------------------------------
Tabbed by: axeslash
Email: holmzito@yahoo.com

Tuning: Guitar 1: EADGBE (panned right)
        Guitar 2: EADGBE (panned left)

Guitar 1:
e|-------------------------------------------------------|
B|-------------------------------------------------------|
G|-15^p13-13-13-15^p13-13-13-15^-15-15-15-15-15-15-13-13-|
D|-------------------------------------------------------|
A|-------------------------------------------------------|
E|-------------------------------------------------------|
Guitar 2:
e|-------------------------------------------------------|
B|-------------------------------------------------------|
G|-------------------------------------------------------|
D|-(palm muted chords)-----------------------------------|
A|-6-------------------------8---------------------------|
E|-4-------------------------6---------------------------| (0:01)

Guitar 1:
e|-------------------------------------------------------|
B|-------------------------------------------------------|
G|-15^p13-13-13-15^p13-13-13-15^-15-15-15-15-15-15-13-13-|
D|-------------------------------------------------------|
A|-------------------------------------------------------|
E|-------------------------------------------------------|
Guitar 2:
e|-------------------------------------------------------|
B|-(palm muted chords)-----------------------------------|
G|-5-------------------------6---------------------------|
D|-3-------------------------4---------------------------|
A|-------------------------------------------------------|
E|-------------------------------------------------------| (0:03)

Guitar 1:
e|-------------------------------------------------------|
B|-------------------------------------------------------|
G|-15^p13-13-13-15^p13-13-13-15^-15-15-15-15-15-15-13-13-|
D|-------------------------------------------------------|
A|-------------------------------------------------------|
E|-------------------------------------------------------|
Guitar 2:
e|-------------------------------------------------------|
B|-------------------------------------------------------|
G|-------------------------------------------------------|
D|-(palm muted chords)-----------------------------------|
A|-6-------------------------8---------------------------|
E|-4-------------------------6---------------------------| (0:05)

Guitar 1:
e|---------------------------------------------------------|
B|-------------------------------14^*-14-14-14-14-14-14-14-|
G|-15^p13-13-13-15^p13-13-13-15^---------------------------|
D|---------------------------------------------------------|
A|---------------------------------------------------------|
E|---------------------------------------------------------|
Guitar 2:
e|---------------------------------------------------------|
B|-(palm muted chords)-------------------------------------|
G|-5-------------------------6-----------------------------|
D|-3-------------------------4-----------------------------|
A|---------------------------------------------------------|
E|---------------------------------------------------------| (0:07)

Guitar 1:
e|-----------------------------------------------------------------|
B|-----------------------------------------------------------------|
G|---------------------------------5---------------6---------------|
D|---------------------------------3-3-3-3-3-3-3-3-4-4-4-4-4-4-4-4-|
A|-6---------------8----------------[x-x-x-x-x-x-x]-[x-x-x-x-x-x-x]|
E|-4-4-4-4-4-4-4-4-6-6-6-6-6-6-6-6---------------------------------|
    [x-x-x-x-x-x-x]-[x-x-x-x-x-x-x]
Guitar 2:
e|-----------------------------------------------------------------|
B|-9-9-9-9-9-9-9-9-7-7-7-7-7-7-7-7-6-6-6-6-6-6-6-6-6-6-6-6-6-6-6-6-|
G|-x-x-x-x-x-x-x-x-x-x-x-x-x-x-x-x-x-x-x-x-x-x-x-x-x-x-x-x-x-x-x-x-|
D|-6-6-6-6-6-6-6-6-4-4-4-4-4-4-4-4-3-3-3-3-3-3-3-3-3-3-3-3-3-3-3-3-|
A|-----------------------------------------------------------------|
E|-----------------------------------------------------------------| (0:11)

Guitar 1:
e|-----------------------------------------------------------------|
B|-----------------------------------------------------------------|
G|---------------------------------5---------------6---------------|
D|---------------------------------3-3-3-3-3-3-3-3-4-4-4-4-4-4-4-4-|
A|-6---------------8----------------[x-x-x-x-x-x-x]-[x-x-x-x-x-x-x]|
E|-4-4-4-4-4-4-4-4-6-6-6-6-6-6-6-6---------------------------------|
    [x-x-x-x-x-x-x]-[x-x-x-x-x-x-x]
Guitar 2:
e|-----------------------------------------------------------------|
B|-------------------------------6-6-6-6-6-6-6-6-6-6-6-6-6-6-6-6-6-|
G|-8-8-8-8-8-8-8-6-6-6-6-6-6-6-6-x-x-x-x-x-x-x-x-x-x-x-x-x-x-x-x-x-|
D|-x-x-x-x-x-x-x-x-x-x-x-x-x-x-x-3-3-3-3-3-3-3-3-3-3-3-3-3-3-3-3-3-|
A|-6-6-6-6-6-6-6-4-4-4-4-4-4-4-4-----------------------------------|
E|-----------------------------------------------------------------| (0:16)

Guitar 1:
e|------------------------------------------------------------------------------|
B|-9----------------------------------------------------------------------------|
G|-x----------------------------------------------------------------------------|
D|-6----------------------------------------------------------------------------|
A|------------------------------------------------------------------------------|
E|------------------------------------------------------------------------------|
Guitar 2:
e|-13-x-13-x-13-x-13-x-13-x-13-x-13-x-13-x-13-x-13-x-13-x-13-x-13-x-13-x-13-x-13-|
B|-13-x-13-x-13-x-13-x-13-x-13-x-13-x-13-x-13-x-13-x-13-x-13-x-13-x-13-x-13-x-13-|
G|-------------------------------------------------------------------------------|
D|-------------------------------------------------------------------------------|
A|-------------------------------------------------------------------------------|
E|-------------------------------------------------------------------------------| (0:20)

Guitar 1:
e|-------------------------------------------------------------------------------|
B|-6-----------------------------------------------------------------------------|
G|-x---------------------------------------------------------8-------------------|
D|-3---------------------------------------------------------x-------------------|
A|-----------------------------------------------------------6-------------------|
E|-------------------------------------------------------------------------------|
Guitar 2:
e|-13-x-13-x-13-x-13-x-13-x-13-x-13-x-13-x-13-x-13-x-13-x-13-x-13-x-13-x-13-x-13-|
B|-13-x-13-x-13-x-13-x-13-x-13-x-13-x-13-x-13-x-13-x-13-x-13-x-13-x-13-x-13-x-13-|
G|-------------------------------------------------------------------------------|
D|-------------------------------------------------------------------------------|
A|-------------------------------------------------------------------------------|
E|-------------------------------------------------------------------------------| (0:24)

Guitar 1:
e|------------------------------------------------------------------------------|
B|-9----------------------------------------------------------------------------|
G|-x----------------------------------------------------------------------------|
D|-6----------------------------------------------------------------------------|
A|------------------------------------------------------------------------------|
E|------------------------------------------------------------------------------|
Guitar 2:
e|-13-x-13-x-13-x-13-x-13-x-13-x-13-x-13-x-13-x-13-x-13-x-13-x-13-x-13-x-13-x-13-|
B|-13-x-13-x-13-x-13-x-13-x-13-x-13-x-13-x-13-x-13-x-13-x-13-x-13-x-13-x-13-x-13-|
G|-------------------------------------------------------------------------------|
D|-------------------------------------------------------------------------------|
A|-------------------------------------------------------------------------------|
E|-------------------------------------------------------------------------------| (0:28)

Guitar 1:
e|-------------------------------------------------------------------------------|
B|-6-----------------------------------------------------------------------------|
G|-x---------------------------------------------------------8-------------------|
D|-3---------------------------------------------------------x-------------------|
A|-----------------------------------------------------------6-------------------|
E|-------------------------------------------------------------------------------|
Guitar 2:
e|-13-x-13-x-13-x-13-x-13-x-13-x-13-x-13-x-13-x-13-x-13-x-13-x-13-x-13-x-13-x-13-|
B|-13-x-13-x-13-x-13-x-13-x-13-x-13-x-13-x-13-x-13-x-13-x-13-x-13-x-13-x-13-x-13-|
G|-------------------------------------------------------------------------------|
D|-------------------------------------------------------------------------------|
A|-------------------------------------------------------------------------------|
E|-------------------------------------------------------------------------------| (0:32)

Guitar 1:
e|-----------------------------------------------------------------|
B|-----------------------------------------------------------------|
G|---------------------------------5---------------6---------------|
D|---------------------------------3-3-3-3-3-3-3-3-4-4-4-4-4-4-4-4-|
A|-6---------------8----------------[x-x-x-x-x-x-x]-[x-x-x-x-x-x-x]|
E|-4-4-4-4-4-4-4-4-6-6-6-6-6-6-6-6---------------------------------|
    [x-x-x-x-x-x-x]-[x-x-x-x-x-x-x]
Guitar 2:
e|-----------------------------------------------------------------|
B|-----------------------------------------------------------------|
G|---------------------------------5-3-3-3-3-3-3-3-6-6-6-6-6-6-6-6-|
D|---------------------------------3-3-3-3-3-3-3-3-4-4-4-4-4-4-4-4-|
A|-6-4-4-4-4-4-4-4-8-8-8-8-8-8-8-8---------------------------------|
E|-4-4-4-4-4-4-4-4-6-6-6-6-6-6-6-6---------------------------------| (0:36)

Guitar 1:
e|-----------------------------------------------------------------|
B|-----------------------------------------------------------------|
G|---------------------------------5---------------6---------------|
D|---------------------------------3-3-3-3-3-3-3-3-4-4-4-4-4-4-4-4-|
A|-6---------------8----------------[x-x-x-x-x-x-x]-[x-x-x-x-x-x-x]|
E|-4-4-4-4-4-4-4-4-6-6-6-6-6-6-6-6---------------------------------|
    [x-x-x-x-x-x-x]-[x-x-x-x-x-x-x]
Guitar 2:
e|-----------------------------------------------------------------|
B|-----------------------------------------------------------------|
G|---------------------------------5-3-3-3-3-3-3-3-6-6-6-6-6-6-6-6-|
D|---------------------------------3-3-3-3-3-3-3-3-4-4-4-4-4-4-4-4-|
A|-6-4-4-4-4-4-4-4-8-8-8-8-8-8-8-8---------------------------------|
E|-4-4-4-4-4-4-4-4-6-6-6-6-6-6-6-6---------------------------------| (0:40)

Guitar 1:
e|-----------------------------------------------------------------|
B|-----------------------------------------------------------------|
G|---------------------------------5---------------6---------------|
D|---------------------------------3-3-3-3-3-3-3-3-4-4-4-4-4-4-4-4-|
A|-6---------------8----------------[x-x-x-x-x-x-x]-[x-x-x-x-x-x-x]|
E|-4-4-4-4-4-4-4-4-6-6-6-6-6-6-6-6---------------------------------|
    [x-x-x-x-x-x-x]-[x-x-x-x-x-x-x]
Guitar 2:
e|-----------------------------------------------------------------|
B|-9-9-9-9-9-9-9-9-7-7-7-7-7-7-7-7-6-6-6-6-6-6-6-6-6-6-6-6-6-6-6-6-|
G|-x-x-x-x-x-x-x-x-x-x-x-x-x-x-x-x-x-x-x-x-x-x-x-x-x-x-x-x-x-x-x-x-|
D|-6-6-6-6-6-6-6-6-4-4-4-4-4-4-4-4-3-3-3-3-3-3-3-3-3-3-3-3-3-3-3-3-|
A|-----------------------------------------------------------------|
E|-----------------------------------------------------------------| (0:44)

Guitar 1:
e|-----------------------------------------------------------------|
B|-----------------------------------------------------------------|
G|---------------------------------5---------------6---------------|
D|---------------------------------3-3-3-3-3-3-3-3-4-4-4-4-4-4-4-4-|
A|-6---------------8----------------[x-x-x-x-x-x-x]-[x-x-x-x-x-x-x]|
E|-4-4-4-4-4-4-4-4-6-6-6-6-6-6-6-6---------------------------------|
    [x-x-x-x-x-x-x]-[x-x-x-x-x-x-x]
Guitar 2:
e|-----------------------------------------------------------------|
B|-------------------------------6-6-6-6-6-6-6-6-6-6-6-6-6-6-6-6-6-|
G|-8-8-8-8-8-8-8-6-6-6-6-6-6-6-6-x-x-x-x-x-x-x-x-x-x-x-x-x-x-x-x-x-|
D|-x-x-x-x-x-x-x-x-x-x-x-x-x-x-x-3-3-3-3-3-3-3-3-3-3-3-3-3-3-3-3-3-|
A|-6-6-6-6-6-6-6-4-4-4-4-4-4-4-4-----------------------------------|
E|-----------------------------------------------------------------| (0:48)

Guitar 1:
e|------------------------------------------------------------------------------|
B|-9----------------------------------------------------------------------------|
G|-x----------------------------------------------------------------------------|
D|-6----------------------------------------------------------------------------|
A|------------------------------------------------------------------------------|
E|------------------------------------------------------------------------------|
Guitar 2:
e|-13-x-13-x-13-x-13-x-13-x-13-x-13-x-13-x-13-x-13-x-13-x-13-x-13-x-13-x-13-x-13-|
B|-13-x-13-x-13-x-13-x-13-x-13-x-13-x-13-x-13-x-13-x-13-x-13-x-13-x-13-x-13-x-13-|
G|-------------------------------------------------------------------------------|
D|-------------------------------------------------------------------------------|
A|-------------------------------------------------------------------------------|
E|-------------------------------------------------------------------------------| (0:53)

Guitar 1:
e|-------------------------------------------------------------------------------|
B|-6-----------------------------------------------------------------------------|
G|-x---------------------------------------------------------8-------------------|
D|-3---------------------------------------------------------x-------------------|
A|-----------------------------------------------------------6-------------------|
E|-------------------------------------------------------------------------------|
Guitar 2:
e|-13-x-13-x-13-x-13-x-13-x-13-x-13-x-13-x-13-x-13-x-13-x-13-x-13-x-13-x-13-x-13-|
B|-13-x-13-x-13-x-13-x-13-x-13-x-13-x-13-x-13-x-13-x-13-x-13-x-13-x-13-x-13-x-13-|
G|-------------------------------------------------------------------------------|
D|-------------------------------------------------------------------------------|
A|-------------------------------------------------------------------------------|
E|-------------------------------------------------------------------------------| (0:57)

Guitar 1:
e|------------------------------------------------------------------------------|
B|-9----------------------------------------------------------------------------|
G|-x----------------------------------------------------------------------------|
D|-6----------------------------------------------------------------------------|
A|------------------------------------------------------------------------------|
E|------------------------------------------------------------------------------|
Guitar 2:
e|-13-x-13-x-13-x-13-x-13-x-13-x-13-x-13-x-13-x-13-x-13-x-13-x-13-x-13-x-13-x-13-|
B|-13-x-13-x-13-x-13-x-13-x-13-x-13-x-13-x-13-x-13-x-13-x-13-x-13-x-13-x-13-x-13-|
G|-------------------------------------------------------------------------------|
D|-------------------------------------------------------------------------------|
A|-------------------------------------------------------------------------------|
E|-------------------------------------------------------------------------------| (1:01)

Guitar 1:
e|-------------------------------------------------------------------------------|
B|-6-----------------------------------------------------------------------------|
G|-x---------------------------------------------------------8-------------------|
D|-3---------------------------------------------------------x-------------------|
A|-----------------------------------------------------------6-------------------|
E|-------------------------------------------------------------------------------|
Guitar 2:                                                                       
e|-13-x-13-x-13-x-13-x-13-x-13-x-13-x-13-x-13-x-13-x-13-x-13-x-13-x-13-x-13-x-13-|
B|-13-x-13-x-13-x-13-x-13-x-13-x-13-x-13-x-13-x-13-x-13-x-13-x-13-x-13-x-13-x-13-|
G|-------------------------------------------------------------------------------|
D|-------------------------------------------------------------------------------|
A|-------------------------------------------------------------------------------|
E|-------------------------------------------------------------------------------| (1:05)

Guitar 1:
e|-----------------------------------------------------------------|
B|-----------------------------------------------------------------|
G|---------------------------------5---------------6---------------|
D|---------------------------------3-3-3-3-3-3-3-3-4-4-4-4-4-4-4-4-|
A|-6---------------8----------------[x-x-x-x-x-x-x]-[x-x-x-x-x-x-x]|
E|-4-4-4-4-4-4-4-4-6-6-6-6-6-6-6-6---------------------------------|
    [x-x-x-x-x-x-x]-[x-x-x-x-x-x-x]
Guitar 2:
e|-----------------------------------------------------------------|
B|-----------------------------------------------------------------|
G|---------------------------------5-3-3-3-3-3-3-3-6-6-6-6-6-6-6-6-|
D|---------------------------------3-3-3-3-3-3-3-3-4-4-4-4-4-4-4-4-|
A|-6-4-4-4-4-4-4-4-8-8-8-8-8-8-8-8---------------------------------|
E|-4-4-4-4-4-4-4-4-6-6-6-6-6-6-6-6---------------------------------| (1:09)

Guitar 1:
e|-----------------------------------------------------------------|
B|-----------------------------------------------------------------|
G|---------------------------------5---------------6---------------|
D|---------------------------------3-3-3-3-3-3-3-3-4-4-4-4-4-4-4-4-|
A|-6---------------8----------------[x-x-x-x-x-x-x]-[x-x-x-x-x-x-x]|
E|-4-4-4-4-4-4-4-4-6-6-6-6-6-6-6-6---------------------------------|
    [x-x-x-x-x-x-x]-[x-x-x-x-x-x-x]
Guitar 2:
e|-----------------------------------------------------------------|
B|-----------------------------------------------------------------|
G|---------------------------------5-3-3-3-3-3-3-3-6-6-6-6-6-6-6-6-|
D|---------------------------------3-3-3-3-3-3-3-3-4-4-4-4-4-4-4-4-|
A|-6-4-4-4-4-4-4-4-8-8-8-8-8-8-8-8---------------------------------|
E|-4-4-4-4-4-4-4-4-6-6-6-6-6-6-6-6---------------------------------| (1:13)

Guitar 1:
e|-------------------------------------------------------|
B|-------------------------------------------------------|
G|-15^p13-13-13-15^p13-13-13-15^-15-15-15-15-15-15-13-13-|
D|-------------------------------------------------------|
A|-------------------------------------------------------|
E|-------------------------------------------------------|
Guitar 2:
e|-------------------------------------------------------|
B|-------------------------------------------------------|
G|-------------------------------------------------------|
D|-------------------------------------------------------|
A|-6-------------------------8---------------------------|
E|-4-------------------------6---------------------------| (1:15)

Guitar 1:
e|-------------------------------------------------------|
B|-------------------------------------------------------|
G|-15^p13-13-13-15^p13-13-13-15^-15-15-15-15-15-15-13-13-|
D|-------------------------------------------------------|
A|-------------------------------------------------------|
E|-------------------------------------------------------|
Guitar 2:
e|-------------------------------------------------------|
B|-------------------------------------------------------|
G|-5-------------------------6---------------------------|
D|-3-------------------------4---------------------------|
A|-------------------------------------------------------|
E|-------------------------------------------------------| (1:17)

Guitar 1:
e|-------------------------------------------------------|
B|-------------------------------------------------------|
G|-15^p13-13-13-15^p13-13-13-15^-15-15-15-15-15-15-13-13-|
D|-------------------------------------------------------|
A|-------------------------------------------------------|
E|-------------------------------------------------------|
Guitar 2:
e|-------------------------------------------------------|
B|-------------------------------------------------------|
G|-------------------------------------------------------|
D|-------------------------------------------------------|
A|-6-------------------------8---------------------------|
E|-4-------------------------6---------------------------| (1:19)

Guitar 1:
e|---------------------------------------------------------|
B|-------------------------------14^*-14-14-14-14-14-14-14-|
G|-15^p13-13-13-15^p13-13-13-15^---------------------------|
D|---------------------------------------------------------|
A|---------------------------------------------------------|
E|---------------------------------------------------------|
Guitar 2:
e|---------------------------------------------------------|
B|---------------------------------------------------------|
G|-5-------------------------6-----------------------------|
D|-3-------------------------4-----------------------------|
A|---------------------------------------------------------|
E|---------------------------------------------------------| (1:21)

Guitar 1:
e|------------------------------------------------------------------------------|
B|-9----------------------------------------------------------------------------|
G|-x----------------------------------------------------------------------------|
D|-6----------------------------------------------------------------------------|
A|------------------------------------------------------------------------------|
E|------------------------------------------------------------------------------|
Guitar 2:
e|-13-x-13-x-13-x-13-x-13-x-13-x-13-x-13-x-13-x-13-x-13-x-13-x-13-x-13-x-13-x-13-|
B|-13-x-13-x-13-x-13-x-13-x-13-x-13-x-13-x-13-x-13-x-13-x-13-x-13-x-13-x-13-x-13-|
G|-------------------------------------------------------------------------------|
D|-------------------------------------------------------------------------------|
A|-------------------------------------------------------------------------------|
E|-------------------------------------------------------------------------------| (1:25)

Guitar 1:
e|-------------------------------------------------------------------------------|
B|-6-----------------------------------------------------------------------------|
G|-x---------------------------------------------------------8-------------------|
D|-3---------------------------------------------------------x-------------------|
A|-----------------------------------------------------------6-------------------|
E|-------------------------------------------------------------------------------|
Guitar 2:
e|-13-x-13-x-13-x-13-x-13-x-13-x-13-x-13-x-13-x-13-x-13-x-13-x-13-x-13-x-16-x-18-|
B|-13-x-13-x-13-x-13-x-13-x-13-x-13-x-13-x-13-x-13-x-13-x-13-x-13-x-13-x-16-x-18-|
G|-------------------------------------------------------------------------------|
D|-------------------------------------------------------------------------------|
A|-------------------------------------------------------------------------------|
E|-------------------------------------------------------------------------------| (1:30)

Guitar 1:
e|------------------------------------------------------------------------------|
B|-9----------------------------------------------------------------------------|
G|-x----------------------------------------------------------------------------|
D|-6----------------------------------------------------------------------------|
A|------------------------------------------------------------------------------|
E|------------------------------------------------------------------------------|
Guitar 2:
e|-13-x-13-x-13-x-13-x-13-x-13-x-13-x-13-x-13-x-13-x-13-x-13-x-13-x-13-x-13-x-13-|
B|-13-x-13-x-13-x-13-x-13-x-13-x-13-x-13-x-13-x-13-x-13-x-13-x-13-x-13-x-13-x-13-|
G|-------------------------------------------------------------------------------|
D|-------------------------------------------------------------------------------|
A|-------------------------------------------------------------------------------|
E|-------------------------------------------------------------------------------| (1:33)

Guitar 1:
e|--------------------------------------------------------------------------------|
B|-6------------------------------------------------------------------------------|
G|-x---------------------------------------------------------8--------------------|
D|-3---------------------------------------------------------x--------------------|
A|-----------------------------------------------------------6--------------------|
E|--------------------------------------------------------------------------------|
Guitar 2:                                                                       
e|-13-x-13-x-13-x-13-x-13-x-13-x-13-x-13-x-13-x-13-x-13-x-13-x-13-x-16-16-x-18-18-|
B|-13-x-13-x-13-x-13-x-13-x-13-x-13-x-13-x-13-x-13-x-13-x-13-x-13-x-16-16-x-18-18-|
G|--------------------------------------------------------------------------------|
D|--------------------------------------------------------------------------------|
A|--------------------------------------------------------------------------------|
E|--------------------------------------------------------------------------------| (1:38)

Guitar 1:
e|-----------------------------------------------------------------|
B|-----------------------------------------------------------------|
G|---------------------------------5---------------6---------------|
D|---------------------------------3-3-3-3-3-3-3-3-4-4-4-4-4-4-4-4-|
A|-6---------------8----------------[x-x-x-x-x-x-x]-[x-x-x-x-x-x-x]|
E|-4-4-4-4-4-4-4-4-6-6-6-6-6-6-6-6---------------------------------|
    [x-x-x-x-x-x-x]-[x-x-x-x-x-x-x]
Guitar 2:
e|-----------------------------------------------------------------|
B|-----------------------------------------------------------------|
G|---------------------------------5-3-3-3-3-3-3-3-6-6-6-6-6-6-6-6-|
D|---------------------------------3-3-3-3-3-3-3-3-4-4-4-4-4-4-4-4-|
A|-6-4-4-4-4-4-4-4-8-8-8-8-8-8-8-8---------------------------------|
E|-4-4-4-4-4-4-4-4-6-6-6-6-6-6-6-6---------------------------------| (1:42)

Guitar 1:
e|-----------------------------------------------------------------|
B|-----------------------------------------------------------------|
G|---------------------------------5---------------6---------------|
D|---------------------------------3-3-3-3-3-3-3-3-4-4-4-4-4-4-4-4-|
A|-6---------------8----------------[x-x-x-x-x-x-x]-[x-x-x-x-x-x-x]|
E|-4-4-4-4-4-4-4-4-6-6-6-6-6-6-6-6---------------------------------|
    [x-x-x-x-x-x-x]-[x-x-x-x-x-x-x]
Guitar 2:
e|-----------------------------------------------------------------|
B|-----------------------------------------------------------------|
G|---------------------------------5-3-3-3-3-3-3-3-6-6-6-6-6-6-6-6-|
D|---------------------------------3-3-3-3-3-3-3-3-4-4-4-4-4-4-4-4-|
A|-6-4-4-4-4-4-4-4-8-8-8-8-8-8-8-8---------------------------------|
E|-4-4-4-4-4-4-4-4-6-6-6-6-6-6-6-6---------------------------------| (1:46)

Guitar 1:
e|-------------------------------------------------------|
B|-------------------------------------------------------|
G|-15^p13-13-13-15^p13-13-13-15^-15-15-15-15-15-15-13-13-|
D|-------------------------------------------------------|
A|-------------------------------------------------------|
E|-------------------------------------------------------|
Guitar 2:                    
e|-------------------------------------------------------|
B|-------------------------------------------------------|
G|-------------------------------------------------------|
D|-------------------------------------------------------|
A|-6-------------------------8---------------------------|
E|-4-------------------------6---------------------------| (1:48)

Guitar 1:   
e|-------------------------------------------------------|
B|-------------------------------------------------------|
G|-15^p13-13-13-15^p13-13-13-15^-15-15-15-15-15-15-13-13-|
D|-------------------------------------------------------|
A|-------------------------------------------------------|
E|-------------------------------------------------------|
Guitar 2:                               
e|-------------------------------------------------------|
B|-------------------------------------------------------|
G|-5-------------------------6---------------------------|
D|-3-------------------------4---------------------------|
A|-------------------------------------------------------|
E|-------------------------------------------------------| (1:50)

Guitar 1:
e|-------------------------------------------------------|
B|-------------------------------------------------------|
G|-15^p13-13-13-15^p13-13-13-15^-15-15-15-15-15-15-13-13-|
D|-------------------------------------------------------|
A|-------------------------------------------------------|
E|-------------------------------------------------------|
Guitar 2:
e|-------------------------------------------------------|
B|-------------------------------------------------------|
G|-------------------------------------------------------|
D|-------------------------------------------------------|
A|-6-------------------------8---------------------------|
E|-4-------------------------6---------------------------| (1:52)

Guitar 1:
e|---------------------------------------------------------|
B|-------------------------------14^*-14-14-14-14-14-14-14-|
G|-15^p13-13-13-15^p13-13-13-15^---------------------------|
D|---------------------------------------------------------|
A|---------------------------------------------------------|
E|---------------------------------------------------------|
Guitar 2:
e|---------------------------------------------------------|
B|---------------------------------------------------------|
G|-5-------------------------6-----------------------------|
D|-3-------------------------4-----------------------------|
A|---------------------------------------------------------|
E|---------------------------------------------------------| (1:54)

Guitar 1:
e|-----------------------------------------------------------------|
B|-----------------------------------------------------------------|
G|---------------------------------5---------------6---------------|
D|---------------------------------3-3-3-3-3-3-3-3-4-4-4-4-4-4-4-4-|
A|-6---------------8----------------[x-x-x-x-x-x-x]-[x-x-x-x-x-x-x]|
E|-4-4-4-4-4-4-4-4-6-6-6-6-6-6-6-6---------------------------------|
    [x-x-x-x-x-x-x]-[x-x-x-x-x-x-x]
Guitar 2:
e|-----------------------------------------------------------------|
B|-9-9-9-9-9-9-9-9-7-7-7-7-7-7-7-7-6-6-6-6-6-6-6-6-6-6-6-6-6-6-6-6-|
G|-x-x-x-x-x-x-x-x-x-x-x-x-x-x-x-x-x-x-x-x-x-x-x-x-x-x-x-x-x-x-x-x-|
D|-6-6-6-6-6-6-6-6-4-4-4-4-4-4-4-4-3-3-3-3-3-3-3-3-3-3-3-3-3-3-3-3-|
A|-----------------------------------------------------------------|
E|-----------------------------------------------------------------| (1:58)

Guitar 1:
e|-----------------------------------------------------------------|
B|-----------------------------------------------------------------|
G|---------------------------------5---------------6---------------|
D|---------------------------------3-3-3-3-3-3-3-3-4-4-4-4-4-4-4-4-|
A|-6---------------8----------------[x-x-x-x-x-x-x]-[x-x-x-x-x-x-x]|
E|-4-4-4-4-4-4-4-4-6-6-6-6-6-6-6-6---------------------------------|
    [x-x-x-x-x-x-x]-[x-x-x-x-x-x-x]
Guitar 2:
e|-----------------------------------------------------------------|
B|-------------------------------6-6-6-6-6-6-6-6-6-6-6-6-6-6-6-6-6-|
G|-8-8-8-8-8-8-8-6-6-6-6-6-6-6-6-x-x-x-x-x-x-x-x-x-x-x-x-x-x-x-x-x-|
D|-x-x-x-x-x-x-x-x-x-x-x-x-x-x-x-3-3-3-3-3-3-3-3-3-3-3-3-3-3-3-3-3-|
A|-6-6-6-6-6-6-6-4-4-4-4-4-4-4-4-----------------------------------|
E|-----------------------------------------------------------------| (2:02)

Guitar 1:
e|-----------------------------------------------------------------|
B|-----------------------------------------------------------------|
G|---------------------------------5---------------6---------------|
D|---------------------------------3-3-3-3-3-3-3-3-4-4-4-4-4-4-4-4-|
A|-6---------------8----------------[x-x-x-x-x-x-x]-[x-x-x-x-x-x-x]|
E|-4-4-4-4-4-4-4-4-6-6-6-6-6-6-6-6---------------------------------|
    [x-x-x-x-x-x-x]-[x-x-x-x-x-x-x]
Guitar 2:
e|-----------------------------------------------------------------|
B|-9-9-9-9-9-9-9-9-7-7-7-7-7-7-7-7-6-6-6-6-6-6-6-6-6-6-6-6-6-6-6-6-|
G|-x-x-x-x-x-x-x-x-x-x-x-x-x-x-x-x-x-x-x-x-x-x-x-x-x-x-x-x-x-x-x-x-|
D|-6-6-6-6-6-6-6-6-4-4-4-4-4-4-4-4-3-3-3-3-3-3-3-3-3-3-3-3-3-3-3-3-|
A|-----------------------------------------------------------------|
E|-----------------------------------------------------------------| (2:06)

Guitar 1:
e|-----------------------------------------------------------------|
B|-----------------------------------------------------------------|
G|---------------------------------5---------------6---------------|
D|---------------------------------3-3-3-3-3-3-3-3-4-4-4-4-4-4-4-4-|
A|-6---------------8----------------[x-x-x-x-x-x-x]-[x-x-x-x-x-x-x]|
E|-4-4-4-4-4-4-4-4-6-6-6-6-6-6-6-6---------------------------------|
    [x-x-x-x-x-x-x]-[x-x-x-x-x-x-x]
Guitar 2:
e|-----------------------------------------------------------------|
B|-------------------------------6-6-6-6-6-6-6-6-6-6-6-6-6-6-6-6-6-|
G|-8-8-8-8-8-8-8-6-6-6-6-6-6-6-6-x-x-x-x-x-x-x-x-x-x-x-x-x-x-x-x-x-|
D|-x-x-x-x-x-x-x-x-x-x-x-x-x-x-x-3-3-3-3-3-3-3-3-3-3-3-3-3-3-3-3-3-|
A|-6-6-6-6-6-6-6-4-4-4-4-4-4-4-4-----------------------------------|
E|-----------------------------------------------------------------| (2:10)

Guitar 1:
e|-----------|
B|-14--------|
G|-13--------|
D|-11--------|
A|-----------|
E|-----------| (2:13)


| [x] palm mute
|  ^* quarter bend and hold
|  ^  quarter bend
|  /  slide up
|  \  slide down
|  h  hammer-on
|  p  pull-off
|  ~  vibrato
|  +  harmonic
|  x  Mute note
===============================================================================
Добавлено: 12.08.2013
Другие материалы по этой песне:
  • Аккорды и текст

Страница создана 12.08.2013
http://primanota.ru/leftover-crack/and-out-comes-the-n-bomb-chords.htm
Привет, Гость.
Предлагаем пройти революционный курс по гитаре.
Подарок от PrimaNota.Ru, забирай!