PrimaNota.ru - самый крупный в мире бесплатный архив песенных текстов, аккордов, табулатур и нот


Left Out - Thats Life - таба, видео

Регистрация Запомнить меня
Войти через:  Facebook Google Twitter Vk Yandex Mail.ru

Left Out - Thats Life - таба, видео

Печатать
Просмотров: 74
		   Title: That's Life
Artist: Left Out
Album: Serve Self
Author: Bryan Grey
Copyright: 1998 Flying Tart Records
Tabbed by: Andy Fetter (af8220@cs.arbor.edu)
Tune down a half step

This song is pretty easy.  Just listen to the CD for the rhythm

Intro/Ending

g---14-0-0-14-0-0-14-0-16-0-0-16-0-0-16-0-12-0-0-12-0-0-12-0-4-4-5-7

Verse
e---------------
b---------------
g---------------
d---7---9---5---
a---7---9---5---
D---5---7---3---

Chorus
e---------------------------
b---------------------------
g---9---5---7---9---9---7---
d---9---5---7---9---9---7---
a---7---3---5---7---6---5---
E---------------------------

Bridge
e-----------------
b-----------------
g---12------------
d---12---12---3---
a---10---12---3---
E--------10---1---
     
Добавлено: 10.06.2013
Вам также может быть интересно:
Другие материалы по этой песне:
  • Аккорды и текст

Страница создана 10.06.2013
http://primanota.ru/left-out/thats-life-chords.htm
Привет, Гость.
Предлагаем пройти революционный курс по гитаре.
Подарок от PrimaNota.Ru, забирай!