PrimaNota.ru - самый крупный в мире бесплатный архив песенных текстов, аккордов, табулатур и нот


Left Front Tire - Cheaters - текст песни, таба, видео

Регистрация Запомнить меня
Войти через:  Facebook Google Twitter Vk Yandex Mail.ru

Left Front Tire - Cheaters - текст песни, таба, видео

Печатать
Просмотров: 153
Artist: Left Front Tire.
Song: Cheaters.
Album: 42 Way To Lose A Friend.
Year: 2003.

Comments, requests, corrections and questions to:
Kenni-B@hotmail.com
Enjoy!


Chords:
   D     Bm     A     G
e------|-----|-----|-----|
B------|-----|-----|-----|
G------|-----|-----|-----|
D--12--|--9--|--7--|--5--|
A--12--|--9--|--7--|--5--|
E--10--|--7--|--5--|--3--|

Intro:

D - Bm - A
           x1.
D - A - D

Lead Guitar:
e--------------------------------|
B--------------------------------|
G--------------------------------|
D--4-4-5-7-7-5-4-2-0-0-2-4-4-2-2-|
A--------------------------------|
E--------------------------------|

e--------------------------------|
B--------------------------------|
G--------------------------------|
D--4-4-5-7-7-5-4-2-0-0-2-4-2-0-0-|
A--------------------------------|
E--------------------------------|

Chorus:
D                                        Bm   A
I cheated, I'm a cheater, it's wrong and I admit it
D                                     A               D
I cheated, I beat it, it's wrong, but I can't quit it now

Verse 1:
D         G          D            A
I'm trying, I'm dying to fight my way to Friday night
D            G                 D                A
Can't take it, I won't make it. I'm high school sucks and life's a drag....

Pre-Chorus:
G               A     
And time stands still (time stands still)
G                   A
and it's una cceptable to fail you

Chorus:
D                                        Bm   A
I cheated, I'm a cheater, it's wrong and I admit it
D                                     A               D
I cheated, I beat it, it's wrong, but I can't quit it now

Verse 2:
D         G           D        A 
Retrieving, receiving a little help from one who knows
D           G           D           A
My conscious, repleteing and wasted thoughts it seems okay

Lead Guitar:
e------------------------------------------------|
B--7--7--8--10--10--8--7--5--3--3--5--7--7--5--5-|
G------------------------------------------------|
D--4--4--5--7---7---5--4--2--0--0--2--4--4--2--2-|
A------------------------------------------------|
E------------------------------------------------|

e------------------------------------------------|
B--7--7--8--10--10--8--7--5--3--3--5--7--5--3--3-|
G------------------------------------------------|
D--4--4--5--7---7---5--4--2--0--0--2--4--2--0--0-|
A------------------------------------------------|
E------------------------------------------------|

Pre-Chorus:
G               A     
And time stands still (time stands still)
G                   A
and it's una cceptable to fail you

Chorus:
D                                        Bm   A
I cheated, I'm a cheater, it's wrong and I admit it
D                                     A               D
I cheated, I beat it, it's wrong, but I can't quit it now

Bridge:
D                                           Bm  A
Six years since my days of being underrated and denied
D                                                 A    D
All my twisted ways of thinking make my past life justified

A      D     A       D     A                    Bm
Morals faded feeling hated I never thought it'd be this way
D                                              A   D
Fall apart more everyday, but in the end we're all okay

D                                           Bm  A
Six years since my days of being underrated and denied
D                                                 A    D
All my twisted ways of thinking make my past life justified

D                                           Bm  A
Six years since my days of being underrated and denied
D                                              A   D
Fall apart more everyday, but in the end we're all okay

End on D.

Lyrics found at:
http://www.plyrics.com/lyrics/leftfronttire/cheaters.html

Добавлено: 31.05.2015
Вам также может быть интересно:
Другие материалы по этой песне:

Страница создана 08.03.2012
http://primanota.ru/left-front-tire/cheaters-chords.htm
Привет, Гость.
Предлагаем пройти революционный курс по гитаре.
Подарок от PrimaNota.Ru, забирай!