PrimaNota.ru - самый крупный в мире бесплатный архив песенных текстов, аккордов, табулатур и нот


Left Front Tire - Bring You Down - аккорды и текст, таба, бас-таба, видео

Регистрация Запомнить меня
Войти через:  Facebook Google Twitter Vk Yandex Mail.ru

Left Front Tire - Bring You Down - аккорды и текст, таба, бас-таба, видео

Печатать
Просмотров: 215
Авторы: Left Front Tire

Bring You Down
Left Front Tire
this song is off the american pie 2 soundtrack and rocks.the tabs all my own 
work.
i have trouble working out which are the verses and which is the chorus,so i 
have included some lyrics so as u dont get lost.

left front tire-bring you down

tabbed by:M.santry

INTRO

C    G   A   F
e--------------------------------
B--------------------------------
G---5----------------------------
D---5---5----7---3---------------
A---3---5----7---3---------------
E---3---3----5---1---------------


Chorus (i think)
  C    G     A   F
e--------------------
B--------------------
G-5xx----------------
D-5xx--5xx--7xx--3x--                                   
A-3xx--5xx--7xx--3x--
E-3xx--3xx--5xx--1x--
.........turn around im doing it again.

VERSE
e--------------------
B--------------------
G-9------------------      (x3)
D-9--9--7------------
A-7--9--7------------
E-7--7--5------------
..............im not tryin 2 bring u down.

3RD RIFF
e-------------------------------------------------- 
B--------------------------------------------------
G-7------------7------------7--9--1--7-------------
D-7--7--9--5---7--7--9--5---7--9--1--7----4--5-----
E-5--7--7--5---5--7--7--5---5--7--9--5----4--5-----
A-5--5--7--3---5--5--7--3---5--7--9--5----2--3-----
(no singing here)

e------------------
B------------------
G-5--5--5--5-------
D-5--5--5--5-------
E-3--3--3--3-------
A-3--3--3--3-------
wasnt long enough from wot i no is right.


THEN THE CHORUS IS PLAYED
THEN VERSE

then this is played
e----------------------------------- 
B-----------------------------------
G-9--11--13--14--13--11--9--8--9----
D-9--11--13--14--13--11--9--8--9----
E-7--9---12--12--12--9---7--6--7----
A-7--9---12--12--12--9---7--6--7----

THEN THE INTRO IS PLAYED.
THEN THE 3RD RIFF IS PLAYED

THEN THE lead plays a few times
e--------------------
B----8---------------
G-5----7--5----------
D--------------------
E--------------------
A--------------------

THEN THE CHORUS IS PLAYED.
with the lead simply playing
e-------------------------
B--8p5-8p5--8p5-----------
G-------------------------  p=pick off
D-------------------------
E-------------------------
A-------------------------

then the verse is played.

the song ends with
e---------------
B---------------
G---------------
D-4--7--9-------
E-4--7--9--2----
A-2--5--7--2----
     
Добавлено: 20.08.2013
Вам также может быть интересно:
Другие материалы по этой песне:

Страница создана 28.02.2012
http://primanota.ru/left-front-tire/bring-you-down-chords.htm
Привет, Гость.
Предлагаем пройти революционный курс по гитаре.
Подарок от PrimaNota.Ru, забирай!