PrimaNota.ru - самый крупный в мире бесплатный архив песенных текстов, аккордов, табулатур и нот


Left Alone - Broke My Heart - текст песни, таба, видео

Регистрация Запомнить меня
Войти через:  Facebook Google Twitter Vk Yandex Mail.ru

Left Alone - Broke My Heart - текст песни, таба, видео

Печатать
Просмотров: 126
-------------------------------------------------------------------------------
                          BROKE MY HEART - Left Alone
-------------------------------------------------------------------------------

Tabbed by: D-M-O
Email: dmichno@telus.net

Tuning: STANDARD (E A D G B E)
PM: PALM MUTE

INTRO/CHORUS x2

      Part One x3           Part Two x1
e|---------------------|--------------------|
B|---------------------|--------------------|
G|--5-5-------2-2------|--------------------|
D|--5-5--5-5--2-2--3-3-|--5-5-555--3-33-3-3-|
A|--3-3--5-5--0-0--3-3-|--5-5-555--3-33-3-3-|
E|-------3-3-------1-1-|--3-3-333--1-11-1-1-|


BRIDGE x1

             |-PM-|
e|------------------|
B|------------------|
G|--5-5-5555-55-5-5-|
D|--5-5-5555-55-5-5-|
A|--3-3-3333-33-3-3-|
E|-----------33-3-3-|


VERSE x2

Listen to music and strum each chord accordingly

e|---------------------------------------|
B|---------------------------------------|
G|--5-----------------2------------------|
D|--5--------5--------2--------3---------|
A|--3--------5--------0--------3---------|
E|-----------3-----------------1---------|


INTRO/CHORUS x1

      Part One x3           Part Two x1
e|---------------------|--------------------|
B|---------------------|--------------------|
G|--5-5-------2-2------|--------------------|
D|--5-5--5-5--2-2--3-3-|--5-5-555--3-33-3-3-|
A|--3-3--5-5--0-0--3-3-|--5-5-555--3-33-3-3-|
E|-------3-3-------1-1-|--3-3-333--1-11-1-1-|


BRIDGE x1

             |-PM-|
e|------------------|
B|------------------|
G|--5-5-5555-55-5-5-|
D|--5-5-5555-55-5-5-|
A|--3-3-3333-33-3-3-|
E|-----------33-3-3-|


VERSE x2

Listen to music and strum each chord accordingly

e|---------------------------------------|
B|---------------------------------------|
G|--5-----------------2------------------|
D|--5--------5--------2--------3---------|
A|--3--------5--------0--------3---------|
E|-----------3-----------------1---------|


INTRO/CHORUS x1

      Part One x3           Part Two x1
e|---------------------|--------------------|
B|---------------------|--------------------|
G|--5-5-------2-2------|--------------------|
D|--5-5--5-5--2-2--3-3-|--5-5-555--3-33-3-3-|
A|--3-3--5-5--0-0--3-3-|--5-5-555--3-33-3-3-|
E|-------3-3-------1-1-|--3-3-333--1-11-1-1-|


BRIDGE x1

             |-PM-|
e|------------------|
B|------------------|
G|--5-5-5555-55-5-5-|
D|--5-5-5555-55-5-5-|
A|--3-3-3333-33-3-3-|
E|-----------33-3-3-|


INTERLUDE x2

e|---------------------------------------------------------------------|
B|---------------------------------------------------------------------|
G|--5-5-5555-55-5------------------------------------------------------|
D|--5-5-5555-55-5--7--5-5-5555-55-55--7-7-7777-77-7--5--3-3-3333-33-33-|
A|--3-3-3333-33-3--7--5-5-5555-55-55--7-7-7777-77-7--5--3-3-3333-33-33-|
E|-----------------5--3-3-3333-33-33--5-5-5555-55-5--3--1-1-1111-11-11-|


INTRO/CHORUS x1

      Part One x3           Part Two x1
e|---------------------|--------------------|
B|---------------------|--------------------|
G|--5-5-------2-2------|--------------------|
D|--5-5--5-5--2-2--3-3-|--5-5-555--3-33-3-3-|
A|--3-3--5-5--0-0--3-3-|--5-5-555--3-33-3-3-|
E|-------3-3-------1-1-|--3-3-333--1-11-1-1-|


ENDING x1

   Hold
e|----------------|
B|----------------|
G|--5-------------|
D|--5-------------|
A|--3-------------|
E|----------------|

That's It!!
Добавлено: 20.04.2012
Другие материалы по этой песне:
  • Аккорды и текст

Страница создана 01.04.2012
http://primanota.ru/left-alone/broke-my-heart-chords.htm
Привет, Гость.
Предлагаем пройти революционный курс по гитаре.
Подарок от PrimaNota.Ru, забирай!