PrimaNota.ru - самый крупный в мире бесплатный архив песенных текстов, аккордов, табулатур и нот


Leevi And The Leavings - Teuvo Maanteiden Kuningas - текст песни, таба, бас-таба, видео

Регистрация Запомнить меня
Войти через:  Facebook Google Twitter Vk Yandex Mail.ru

Leevi And The Leavings - Teuvo Maanteiden Kuningas - текст песни, таба, бас-таба, видео

Печатать
Просмотров: 170
Уроки эстрадного вокала в Санкт-Петербурге
Leevi And The Leavings - Teuvo Maanteiden kuningas
Tekijä: Jarno Silén
Author: Jarno Silén

Intro

e-------------------------------3---2--0-----------------|
  B---3--3--3--2--0--3--0--0---------------0--3--2-------|
  G------------------------------------------------------|
  D------------------------------------------------------|
  A------------------------------------------------------|
  E------------------------------------------------------|    x6

Verse

 e----------------------------------------------------------------|
  B---3-3-3-3-5-5-5-5-3-2-0---3------0-0-0------------------------|
  G-------------------------2-----2--------2----------------------|
  D---------------------------------------------------------------|
  A---------------------------------------------------------------|
  E---------------------------------------------------------------|

  e--------------------------------------------------------|
  B--------------------------------------------------------|
  G---------2-2--------------------------------------------|
  D---2-3-5------------------------------------------------|
  A--------------------------------------------------------|
  E--------------------------------------------------------|      x4

Chorus
e-------------------------------3---2--0-----------------|
  B---3--3--3--2--0--3--0--0---------------0--3--2-------|
  G------------------------------------------------------|
  D------------------------------------------------------|
  A------------------------------------------------------|
  E------------------------------------------------------|    x4

Verse

   e--------------------------------------------------------------|
  B---3-3-3-3-5-5-5-5-3-2-0---3------0-0-0------------------------|
  G-------------------------2-----2--------2----------------------|
  D---------------------------------------------------------------|
  A---------------------------------------------------------------|
  E---------------------------------------------------------------|

  e-------------------------------------------------------|
  B-------------------------------------------------------|
  G---------2-2-------------------------------------------|
  D---2-3-5-----------------------------------------------|
  A-------------------------------------------------------|
  E-------------------------------------------------------|     x2

Chorus
e-------------------------------3---2--0-----------------|
  B---3--3--3--2--0--3--0--0---------------0--3--2-------|
  G------------------------------------------------------|
  D------------------------------------------------------|
  A------------------------------------------------------|
  E------------------------------------------------------|    x4


"Rallikuskiksi pääsystä..........."
 e-----------------------------------------------------------------|
  B----------------------------------------------------------------|
  G----------------------------------------------------------------|
  D-------------------------------5-5-5-5-3-2----------------------|
  A---5-7-8-8-8-8-7-5-3-3-5-3-2-0----------------------------------|
  E----------------------------------------------------------------|

 e----------------------------------------------------------|
  B---------------------------------------------------------|
  G---------------------------------------------------------|
  D-----2---------------------------------------------------|
  A---5---5-3-5-3-2-----------------------------------------|
  E-----------------3-3-------------------------------------|     x2

Chorus
e-------------------------------3---2--0-----------------|
  B---3--3--3--2--0--3--0--0---------------0--3--2-------|
  G------------------------------------------------------|
  D------------------------------------------------------|
  A------------------------------------------------------|
  E------------------------------------------------------|    x4

Verse

   e--------------------------------------------------------------|
  B---3-3-3-3-5-5-5-5-3-2-0---3------0-0-0------------------------|
  G-------------------------2-----2--------2----------------------|
  D---------------------------------------------------------------|
  A---------------------------------------------------------------|
  E---------------------------------------------------------------|

  e-------------------------------------------------------|
  B-------------------------------------------------------|
  G---------2-2-------------------------------------------|
  D---2-3-5-----------------------------------------------|
  A-------------------------------------------------------|
  E-------------------------------------------------------|     x2

Chorus
e-------------------------------3---2--0-----------------|
  B---3--3--3--2--0--3--0--0---------------0--3--2-------|
  G------------------------------------------------------|
  D------------------------------------------------------|
  A------------------------------------------------------|
  E------------------------------------------------------|    x2


e---------------------------------------------------------------|
  B---7-0-7-5----5-3-5-3--7-0---0-------------------------------|
  G---------------------------2---------------------------------|
  D-------------------------------------------------------------|
  A-------------------------------------------------------------|
  E-------------------------------------------------------------|

Chorus
e-------------------------------3---2--0-----------------|
  B---3--3--3--2--0--3--0--0---------------0--3--2-------|
  G------------------------------------------------------|
  D------------------------------------------------------|
  A------------------------------------------------------|
  E------------------------------------------------------|    x2

e---------------------------------------------------------------|
  B---7-0-7-5----5-3-5-3--7-0---0-------------------------------|
  G---------------------------2---------------------------------|
  D-------------------------------------------------------------|
  A-------------------------------------------------------------|
  E-------------------------------------------------------------|


Chorus
e-------------------------------3---2--0--------------------|
  B---3--3--3--2--0--3--0--0---------------0--3--2----------|
  G---------------------------------------------------------|
  D---------------------------------------------------------|
  A---------------------------------------------------------|
  E-------------------------------------------------    x10-|
Добавлено: 12.06.2012
Другие материалы по этой песне:

Страница создана 24.03.2012
http://primanota.ru/leevi-and-the-leavings/teuvo-maanteiden-kuningas-chords.htm
Привет, Гость.
Предлагаем пройти революционный курс по гитаре.
Подарок от PrimaNota.Ru, забирай!