PrimaNota.ru - самый крупный в мире бесплатный архив песенных текстов, аккордов, табулатур и нот


Leeland - Beginning And The End - бас-таба, видео

Регистрация Запомнить меня
Войти через:  Facebook Google Twitter Vk Yandex Mail.ru

Leeland - Beginning And The End - бас-таба, видео

Печатать
Просмотров: 129
-------------------------------------------------------------------------------
			     Beginning and the end - Leeland
-------------------------------------------------------------------------------

Tabbed By : theladchaplad
e-mail: aaronshell117@hotmail.com

Tuning: Standard




Intro


You want to get short notes and ill let you figure out the rhythm 
(Ive kinda tried to tab it out)


G|---------------------------------------------------------------------------|
D|---------------------------------------------------------------------------|
A|---------------------------------4-4---4-4--4----7-7---7-7--7--------------|
E|-4-4---4-4--4----2-2---2-2--2----------------------------------------------|




Verse

G|---------------------------------------------------------------------------|
D|---------------------------------------------------------------------------|
A|---------------------------------2-2---2-2--2----4-4---4-4--4--------------|
E|-4-4---4-4--4----4-4---4-4--4----------------------------------------------|




Pre Chorus

G|---------------------------------------------------------------------------|
D|---------------------------------------------------------------------------|
A|--7~------------7~---------------------------------------------------------|
E|---------------------------------------------------------------------------|


Chorus

G F D E (go to the E on the A string 7th fret)


You'll have to figure out the beat soz




Ending

G|---------------------------------------------------------------------------|
D|---------------------------------------------------------------------------|
A|---------------------------------4-4---4-4--4----7-7---7-7--7--------------|
E|-4-4---4-4--4----2-2---2-2--2----------------------------------------------|




This is my first tab please rate




| /  slide up
| \  slide down
| h  hammer-on
| p  pull-off
| ~  let ring
| +  harmonic
| x  Mute note
=============================================================================
Добавлено: 21.07.2012
Другие материалы по этой песне:
  • Аккорды и текст

Страница создана 21.07.2012
http://primanota.ru/leeland/beginning-and-the-end-chords.htm
Привет, Гость.
Предлагаем пройти революционный курс по гитаре.
Подарок от PrimaNota.Ru, забирай!