PrimaNota.ru - самый крупный в мире бесплатный архив песенных текстов, аккордов, табулатур и нот


Lee Sang Gon - Love Hurts - таба, видео

Регистрация Запомнить меня
Войти через:  Facebook Google Twitter Vk Yandex Mail.ru

Lee Sang Gon - Love Hurts - таба, видео

Печатать
Просмотров: 36
Standard Tuning (3rd Fret Capo)

|-----0-1-3-----0---------0-0-(0)---------5-3--------------------0-1-3-------|
|------------------3--1-3---------3-1---------1-3-3--1-3-----3-3-------------|
|-----------------------2---------------------0--------0---0---0-------------|
|---2---------0---------2---------------3-----2--------0-0-----0---------2---|
|-3---------2---2-------0-------------3-------3------------------------3-----|
|------------------------------------------------------3-------3-------------|

|-0-1-3-----------------------------------------0----------------------|
|-------------3--1--0-1---------1-1-0-------------3-----1-1-----1-1----|
|-----------0---------2---------2-----0-0-2-2-----0---0---0---0---0----|
|---------0-----------2-2-2---2-2-------3---------0-0-----2-2-----2----|
|-------2-----2-------0-----0---0-------3-----3-----------3-------3----|
|-------------------------------------------------3--------------------|

|-0-----0--------------------------------------------------------------|
|---3-1---------1-1-1-1---3-------3-3-1-0-3-----------3-1-1-0-1-----1--|
|---------2---2---2-----2-------0---0-------0---0---0-0-------2---2----|
|---------3-3-----3-----------0-----0-------2-2---------------2-2------|
|---------3-------3-------------------------2-----2---2-------0--------|
|---------------------------3-------3----------------------------------|

|---------0-0-1-------0-1---------0------------0------0-------0--1--3-3-----|
|-1-1-1-3-----------1-----------1----3-----3-3---3-1--1-----1-1-------1-1-1-|
|-2---------2-----2---2-------2------0---0---0--------0---0---0-------2-----|
|-2-------------------------3--------0-0-----0----------2-------------------|
|-0---------3---3-----3---3---------------------------3-------3-------3-----|
|------------------------------------3-------3------------------------------|

|-----3---------0------------------------3-3-----3---1-0-----0-------------|
|-----1-1-1-------1--3-----3---3---1-0-1---0---0---------3-1-1-----1-1-(1)-|
|---2-2-------2------0---0-----0-----------0-0---------------2---2---2-(2)-|
|--------------------0-0-------0-0---------------------------2-2-----2-(2)-|
|-3---3-----3------------------------------2-------2-2-------0-------0-(0)-|
|--------------------3-------3-3-------------------------------------------|

|-----------------0-1-0----------|
|-1-1-----1-1-3---------3-1-1----|
|---2-------2-0-------------0----|
|---3-3-3---3-0-------------2----|
|---3-------3---------------3----|
|-------------3------------------|
Добавлено: 16.12.2015
Вам также может быть интересно:
Другие материалы по этой песне:
  • Аккорды и текст

Страница создана 16.12.2015
http://primanota.ru/lee-sang-gon/love-hurts-chords.htm
Привет, Гость.
Предлагаем пройти революционный курс по гитаре.
Подарок от PrimaNota.Ru, забирай!