PrimaNota.ru - самый крупный в мире бесплатный архив песенных текстов, аккордов, табулатур и нот


Lee Jin Ah - Invisible - таба, видео

Регистрация Запомнить меня
Войти через:  Facebook Google Twitter Vk Yandex Mail.ru

Lee Jin Ah - Invisible - таба, видео

Печатать
Просмотров: 63
-----------------------------------------------------------------------------
              (Invisible) 보이지 않는 것 - (Lee Jin Ah) 이진아
-----------------------------------------------------------------------------
Tabbed by: Luis Israel IV
Tuning: Standard

e|-5-7-8-----8-7-5-3-----2-----|-5-7-8-----8-7-5-5-----------------|
B|---------5-----------3----1--|---------5-----------8-----8-8---1-|
G|-------5-----------0------2--|-------5-----------0-----0---0-0-2-|
D|-----0-------0---0-----------|-----0-------0-0-0-----0-----0-----|
A|-----------------------------|-----------------------------------|
E|-----------------------------|-----------------------------------|

e|-8-----8-7-5-3-5-7-8-|-----5-----------------|
B|-----0-------------8-|-5-3-----5-3-1-----1-1-|
G|---0---------------0-|-------5-----0---0---0-|
D|-0-------0-0-0---0---|-----0---0-----0-------|
A|---------------------|-----------------------|
E|---------------------|-----------------------|
Добавлено: 01.01.2016
Другие материалы по этой песне:
  • Аккорды и текст

Страница создана 01.01.2016
http://primanota.ru/lee-jin-ah/invisible-chords.htm
Привет, Гость.
Предлагаем пройти революционный курс по гитаре.
Подарок от PrimaNota.Ru, забирай!