PrimaNota.ru - самый крупный в мире бесплатный архив песенных текстов, аккордов, табулатур и нот


Lee Harding - Anything For You - текст песни, таба, видео

Регистрация Запомнить меня
Войти через:  Facebook Google Twitter Vk Yandex Mail.ru

Lee Harding - Anything For You - текст песни, таба, видео

Печатать
Просмотров: 106
Уроки эстрадного вокала в Санкт-Петербурге
Lee Harding is so punk rock and i love his music <3 He rocks <3 This song is my
on his album! I'm inlove with the solo but unfortunetly it's a bit above my level. Sorry 
don't
the solo. It's mostly rhythm with the intros. Hope it works for yuz <3

/ – Open Strum

Intro (guitar 1)
E--------------------------------------|
B-----10---11---10---------------------|
G--------------------------------------|
D--------------------------------------|  x3
A--------------------------------------|
E--------------------------------------|

Verse (Palm Muted)
e-------------------------------------|   ------------------------------|
b-------------------------------------|   ------------------------------|
g-------------------------------------|   ------------------------------|
d----7--7-------------5-5-------------|x2 --7-7-/----------5-5-/--------|x2
a----5--5----5-5----3-3-----7-7-------|   --5-5-/--5-5-/---3-3-/--7-7-/-|
e-------------3-3-------------5-5-----|   ---------3-3-/----------5-5-/-|

Bridge (Palm Muted)
E-------------------------------------------------------------------|
B-------------------------------------------------------------------|
G-------------------------------------------------------------------|
D-------------------------------------------------5-5-5-5-5-5-5-5---|
A--5-5-5-5--5-/--5-5-5-5--5-/---5-5-/-5-5-5-/-5---3-3-3-3-3-3-3-3---|
E--3-3-3-3--7-/--3-3-3-3--7-/---3-3-/-3-7-7-/-7---------------------|

Chorus
E----------------------------------------------------|
B----------------------------------------------------|
D----------------------------------------------------|
G---7-7-7-7---------------5-5-5-5--------------------| x3
A---5-5-5-5----5-5-5-5----3-3-3-3----7-7-7-7---------|
E--------------3-3-3-3---------------5-5-5-5---------|

E-------------------------------------|
B-------------------------------------|
D-------------------------------------|
G-------------------------------------|
A---5-5-5-5-5-5-5-5-6-6-6-6-6-6-6-6---|
E---3-3-3-3-3-3-3-3-4-4-4-4-4-4-4-4---|


Intro


Verse 2
E--------------------------|------------------------------|
B--------------------------|------------------------------|
g--------------------------|------------------------------|
d--------------------------|----5-5----------5-5----------| x2
A--5-5---5-5---5-5---5-5---|----7-7---5-5----3-3---5-5----|
E--3-3---3-3---3-3---3-3---|----------3-3----------7-7----|


Bridge
Chorus

Intermission
E------------------------------------|
B------------------------------------|
G------------------------------------|
D----7-7--------5-5------------------| x2
A----5-5---5-5--3-3---7-7------------|
E----------3-3--------5-5------------|

Solo (Couldn't get that)
Bridge
Chorus x2
End Solo (guitar 2= chorus)

Tablature done by Emma Nagy <3
Добавлено: 25.03.2012
Вам также может быть интересно:
Другие материалы по этой песне:
  • Аккорды и текст

Страница создана 25.03.2012
http://primanota.ru/lee-harding/anything-for-you-chords.htm
Привет, Гость.
Предлагаем пройти революционный курс по гитаре.
Подарок от PrimaNota.Ru, забирай!