PrimaNota.ru - самый крупный в мире бесплатный архив песенных текстов, аккордов, табулатур и нот


Lee Fields And The Expressions - Money Is King - таба, видео

Регистрация Запомнить меня
Войти через:  Facebook Google Twitter Vk Yandex Mail.ru

Lee Fields And The Expressions - Money Is King - таба, видео

Печатать
Просмотров: 75
-------------------------------------------------------------------------------
          MONEY I$ KING -LEE FIELDS AND THE EXPRESSIONS
-------------------------------------------------------------------------------
Tabbed by: ignaciomendeznunez
E-mail: ignacio.mendeznunez@gmail.com

Tuning: Standard
Intro
e|---------------------------------------------------------------------------|
B|---------------------------------------------------------------------------|
G|-----5----5----5---5-------------5---5---5---5---5-5h7---------------------|
D|--/7---~7---~7---7---7--------/7---7---7---7---7---------------------------|
A|---------------------------------------------------------------------------|
E|---------------------------------------------------------------------------|

Main Riff  
 Dm                    Dm
e|----5----------------5-----------------------------------------------------|
B|----6----------------6-----------------------------------------------------|
G|----7----------------7-----------------------------------------------------|
D|----7---3h5-3--------7-----3h5--3------------------------------------------|
A|--5--------------5---------------------------------------------------------|
E|---------------------------------------------------------------------------|

Hits @1:19 (octaves if you want) Listen for timing
e|-------------------5-------------------------------------------------------|
B|-------------------6-------------------------------------------------------|
G|--5--4--3--2-------7-------------------------------------------------------|
D|-5-----------3-----7-------------------------------------------------------|
A|-----------------5---------------------------------------------------------|
E|---------------------------------------------------------------------------|

Back to Main Riff
Добавлено: 10.12.2015
Другие материалы по этой песне:
  • Аккорды и текст

Страница создана 10.12.2015
http://primanota.ru/lee-fields-and-the-expressions/money-is-king-chords.htm
Привет, Гость.
Предлагаем пройти революционный курс по гитаре.
Подарок от PrimaNota.Ru, забирай!