PrimaNota.ru - самый крупный в мире бесплатный архив песенных текстов, аккордов, табулатур и нот


Lee Dorsey - Working In A Coal Mine - бас-таба, видео

Регистрация Запомнить меня
Войти через:  Facebook Google Twitter Vk Yandex Mail.ru

Lee Dorsey - Working In A Coal Mine - бас-таба, видео

Печатать
Просмотров: 109
Уроки эстрадного вокала в Санкт-Петербурге
Lee Dorsey
Working In A Coal Mine (Bass)
Transcribed by Soch Hean
Tuning: Standard

Web Site:  http://www.tsimon.com/dorsey.htm

Intro:
|---------------------------------------|
|-8-----8----6-8--8---6-8----8---6-8----|
|----8-----8--------8------8---8--------|
|---------------------------------------|

Chorus: (0:10)
|------------------------------------------------------------|
|-8-----8----6-8--8---6-8----8---6-8---8-----8--6------------|
|----8-----8--------8------8---8----------8-------8-6--------|
|-----------------------------------------------------9-6----|

|--------------------------------|
|-8-----8--6---------------------|
|----8-------8-6-------6-8-------|
|----------------9-6-9-----------|


Verse: (0:24)
|---------------------------------------------------------------------------------|
|--------8-----------------------8-------------------------8----------------------|
|-8-8--8---5--6--7--8-----8---8----5--6----7-10-8-----8-8----5--6--7--8-----------|
|-----------------------8---8------------8----------8-----------------------------|

|----------------------------------|
|-10----10---10----10----6-6-6-----|
|----8-----8----8-----8------------|
|----------------------------------|


Chorus:  (0:37)
|------------------------------------------------------------|
|-8-----8----6-8--8---6-8----8---6-8---8-----8--6------------|
|----8-----8--------8------8---8----------8-------8-6--------|
|-----------------------------------------------------9-6----|

|--------------------------------|
|-8-----8--6---------------------|
|----8-------8-6-------6-8-------|
|----------------9-6-9-----------|


Verse: (0:51)
|---------------------------------------------------------------------------------|
|--------8-----------------------8-------------------------8----------------------|
|-8-8--8---5--6--7--8-----8---8----5--6----7-10-8-----8-8----5--6--7--8-----------|
|-----------------------8---8------------8----------8-----------------------------|

|----------------------------------|
|-10----10---10----10----6-6-6-----|
|----8-----8----8-----8------------|
|----------------------------------|


Chorus:  (1:04)
|------------------------------------------------------------|
|-8-----8----6-8--8---6-8----8---6-8---8-----8--6------------|
|----8-----8--------8------8---8----------8-------8-6--------|
|-----------------------------------------------------9-6----|

|--------------------------|
|-8-----8--6---------------|
|----8-------8-6-------6---|
|----------------9-6-9-----|


Breakdown: (1:18)
|----------------------------------------|
|-8-----8----6-8--8---6-8----8---6-8-----|
|----8-----8--------8------8---8---------|
|----------------------------------------|

|----------------------------------------|
|-8-----8----6-8--8---6-8----8---6-8-----|
|----8-----8--------8------8---8---------|
|----------------------------------------|


Chorus:  (1:31)
|------------------------------------------------------------|
|-8-----8----6-8--8---6-8----8---6-8---8-----8--6------------|
|----8-----8--------8------8---8----------8-------8-6--------|
|-----------------------------------------------------9-6----|

|--------------------------------|
|-8-----8--6---------------------|
|----8-------8-6-------6-8-------|
|----------------9-6-9-----------|


Verse: (1:44)
|---------------------------------------------------------------------------------|
|--------8-----------------------8-------------------------8----------------------|
|-8-8--8---5--6--7--8-----8---8----5--6----7-10-8-----8-8----5--6--7--8-----------|
|-----------------------8---8------------8----------8-----------------------------|

|----------------------------------|
|-10----10---10----10----6-6-6-----|
|----8-----8----8-----8------------|
|----------------------------------|

[Repeat Chorus]

[Repeat Verse]

[Repeat Chorus]

-Fade Out-
Добавлено: 22.02.2012
Другие материалы по этой песне:

Страница создана 22.02.2012
http://primanota.ru/lee-dorsey/working-in-a-coal-mine-chords.htm
Привет, Гость.
Предлагаем пройти революционный курс по гитаре.
Подарок от PrimaNota.Ru, забирай!