PrimaNota.ru - самый крупный в мире бесплатный архив песенных текстов, аккордов, табулатур и нот


Lee Dorsey - Give It Up - аккорды и текст, таба, видео

Регистрация Запомнить меня
Войти через:  Facebook Google Twitter Vk Yandex Mail.ru

Lee Dorsey - Give It Up - аккорды и текст, таба, видео

Печатать
Просмотров: 123
Авторы музыки: Allen Toussaint
Авторы текста: Allen Toussaint
Give It Up
Lee Dorsey
Lee Dorsey - Give it up
-----------------------------------------------------------------------------
This song is quite simple since it uses the same three chords all over, but it's 
still a great track

-----------------------------------------------------------------------------

These are the chords used (showed in bars):

|F|Bb Ab F|

The rhythmic pattern is not static to the beat. Try these chords out and you will 
hear when to change the chord :)

-----------------------------------------------------------------------------

Ways of playing (Quick guitar lesson on how to play "give it up"):
-----------------------------------------------------------------------------
Using the standard major "capo chord" which is this: 

Example (F chord) 

Fret 1
______________
E|-1-|---|---
B|-1-|---|---
G|-1-|-2-|---
D|-1-|---|-4-
A|-1-|---|-3-
E|-1-|---|---
---------------

Now move this grip around according to this instruction: (showed in bars)

F = Fret (the frets shown below is according to you first fingers position on the fret board)

|F|F6 F F|

-----------------------------------------------------------------------------

With Capo:
-----------------------------------------------------------------------------
Put the capo on the 1st fret and play the following

|E|A G E|
-----------------------------------------------------------------------------

Tabbed by Mefton 2012
Добавлено: 03.11.2013
Другие материалы по этой песне:
  • Аккорды и текст

Страница создана 03.04.2012
http://primanota.ru/lee-dorsey/give-it-up-chords.htm
Привет, Гость.
Предлагаем пройти революционный курс по гитаре.
Подарок от PrimaNota.Ru, забирай!