PrimaNota.ru - самый крупный в мире бесплатный архив песенных текстов, аккордов, табулатур и нот


Led Zeppelin - You Shook Me Live - таба, видео

Регистрация Запомнить меня
Войти через:  Facebook Google Twitter Vk Yandex Mail.ru

Led Zeppelin - You Shook Me Live - таба, видео

Печатать
Просмотров: 109
INTRO

e|-/12-12------12---12---------------------|----------------------------------|
B|----------15---------15-12---------------|----------------------------------|
G|---------------------------14-12--/11----|-----12-14-14^--14^--14--/12-12---|
D|-------------------------------------14--|--14---------------------------14-|
A|-----------------------------------------|----------------------------------|
E|-----------------------------------------|----------------------------------|

                                                VERSES 1 - 2

e|--------------------------|---------------|------------|------------|
B|--------------------------|---------------|------------|------------|
G|--------13----12--12------|---------------|------------|------------|
D|-----14----14---------14--|-----12-11-12--|--2-7--5-2--|--2-2--2-2--|
A|-/14----------------------|--14-----------|--2-7--5-2--|--2-4--4-2--|
E|--------------------------|---------------|--0-5--3-0--|--0-0--0-0--|

                                                   I said you shook me, babe
                                                   I have a bird that whistles

                                        1ST                               2ND
e|------------|-------------------------||--------------------------------||-----------|
B|------------|-------------------------||--------------------------------||-----------|
G|------------|-----------12------------||--------------------------------||-----------|
D|--2-7--5-2--|-----12-14------14--12~--||--12----12\11/12---------12\\0--||-2-7--5-2--|
A|--2-7--5-2--|-/14---------------------||--------------------------------||-2-7--5-2--|
E|--0-5--3-0--|-------------------------||--------------------------------||-0-5--3-0--|

[Lyrics match guitar]   
                 You shook me all.. night.. lo--ng [sustain till bracket ends]
                 And I have heard.. that..  ahhh-ahh-

|-------------------------------------|--------------------------------|
|-------------------------------------|--------------------------------|
|------------12-----------------------|----------------12-14----12\\0--|
|------12-14---------14-----12---14---|--7-------12-14-----------------|
|--/14--------------------------------|--7---/14-----------------------|
|-------------------------------------|--5-----------------------------|

   I said you shook, me,     ba-by         You shook me all night long
   Yes a bird,       that,   whis-tles     Yes I have heard that song

             1ST           1ST/2ND
|------------||------------||-----------------|-----12--------------|
|------------||------------||--/12-12-----12--|--12----15-12--------|
|------------||------------||----------14-----|--------------14-12--|
|--2-7--5-2--||--2-2--2-2--||-----------------|---------------------|
|--2-7--5-2--||--2-4--4-2--||-----------------|---------------------|
|--0-5--3-0--||--0-0--0-0--||-----------------|---------------------|

                            You shook, me so     ha-ard, baby
                            I have a bird        that owes you nothin'
1ST
||--/12--12--12-----/12--12--12-----------------|--------------------------------|
||------------------------------15-12-----------|--------------------------------|
||------------------------------------14-12-12--|---------14-12-13~---12--14-13--|
||----------------------------------------------|------14------------------------|
||----------------------------------------------|--/14---------------------------|
||----------------------------------------------|--------------------------------|

              Ba-ay-ay, ba-ay-ay, please come home

                  
|----------------||
|----------------||
|--12------------||        BACK TO VERSE 
|--12--14\12/14--||
|------14\12/14--||
|----------------||


2ND
|-----12----------------------------|---------------------------------|
|--12----15-12----------------------|---------------------------------|
|--------------14-12--14-12--14-13--|--------------13----12-----------|
|-----------------------------------|-----------14----14-------14-12--|
|-----------------------------------|-------/14-----------------------|
|-----------------------------------|---------------------------------|

             I should buy you a diamond ring



SOLO 1, 2:18 - Harmonica REPEAT Organ

   E
|------------------------|
|------------------------|
|------------------------|
|--2-2--2-2----2-2--2-2--|  X4
|--2-2--4-4----2-2--4-4--|
|--0-0--0-0----0-0--0-0--|


   A
|------------------------|
|------------------------|
|--2-2--2-2----2-2--2-2--|  X2
|--2-2--4-4----2-2--4-4--|
|--0-0--0-0----0-0--0-0--|
|------------------------|


   E
|------------------------|
|------------------------|
|------------------------|
|--2-2--2-2----2-2--2-2--|  X2
|--2-2--4-4----2-2--4-4--|
|--0-0--0-0----0-0--0-0--|

|-----------------|
|-----------------|
|--9-9--9-7--7-9--|
|--9-9--9-7--7-9--|
|--7-7--7-5--5-7--|
|-----------------|

|---------------------------|
|---------------------------|
|---------------------------|  REPEAT SECTION
|---9------11------9--------|
|---7------7-------7--------|
|---------------------------|


VERSE 3

e|-------------------|------------|------------|
B|-------------------|------------|------------|
G|-------------------|------------|------------|
D|-------------------|--2-7--5-2--|--2-2--2-2--|
A|--2----------------|--2-7--5-2--|--2-4--4-2--|
E|--0----------------|--0-5--3-0--|--0-0--0-0--|

      I said you roll me baby                                      
                                                                       
e|-------------------------|-----------------------------------------------------|
B|-------------------------|-----------------------------------------------------|
G|-----------12------------|-----------------------------------------------------|
D|-----12-14------14--12~--|--12----12\11/12--14--12\11/12--12\11/12--14--12\\0--|
A|-/14---------------------|-----------------------------------------------------|
E|-------------------------|-----------------------------------------------------|
   
   Just like a wave...   
                 
|-------------------------------------|--------------------------------|
|-------------------------------------|--------------------------------|
|------------12-----------------------|----------------12-14----12\\0--|
|------12-14---------14-----12---14---|--7-------12-14-----------------|
|--/14--------------------------------|--7---/14-----------------------|
|-------------------------------------|--5-----------------------------|

   You know you rolled me,   ba-by           Just like a wave, ah, ahhhh...

            
|------------|-----------------|-----12--------------|
|------------|--/12-12-----12--|--12----15-12--------|
|------------|----------14-----|--------------14-12--|
|--2-7--5-2--|-----------------|---------------------|
|--2-7--5-2--|-----------------|---------------------|
|--0-5--3-0--|-----------------|---------------------|

                                  I just know how you roll me baby

1ST                                           G  G F#  F# F   F E
||----------------------------------------|--------------------------------|
||----------------------------------------|--------------------------------|
||----------------------------------------|--------------------------------|
||----------------------------------------|---5---5-4---4-3---3-2----------|
||----------------------------------------|---5---5-4---4-3---3-2----------|
||----------------------------------------|---3---3-2---2-1---1-0----------|

      You don't- You don't know, how I feel. 


GUITAR SOLO
Добавлено: 09.10.2013
Другие материалы по этой песне:
  • Аккорды и текст

Страница создана 09.10.2013
http://primanota.ru/led-zeppelin/you-shook-me-live-chords.htm
Привет, Гость.
Предлагаем пройти революционный курс по гитаре.
Подарок от PrimaNota.Ru, забирай!