PrimaNota.ru - самый крупный в мире бесплатный архив песенных текстов, аккордов, табулатур и нот


Led Zeppelin - The Rain Song Ending - таба, видео

Регистрация Запомнить меня
Войти через:  Facebook Google Twitter Vk Yandex Mail.ru

Led Zeppelin - The Rain Song Ending - таба, видео

Печатать
Просмотров: 94
Artist: Led Zeppelin
Song: The Rain Song Ending (Houses Of The Holy 1973)
Tuning: DGCGCD
Transcriber: Phil Champ

This is a transcription of the fingerpicked 6-string acoustic part on
the left of the mix. The flatpicked 6-string electric part on the right
is slightly different.


                                                                  
D||--9----9----9--9--9--7--0--|--7----5--5--0--5--7--7--|--7--0-0-|
C||--7----7----7--7--7--7--0--|--5----5--5--0--5--5--5--|--5--0-0-|
G||--7----7----7--7--7--7--0--|--5----5--5--0--5--5--5--|--5--0-0-|
C||--7----7----7--7--7--7--0--|--5----5--5--0--5--5--5--|--5--0-0-|
G||--0----0----0--0--0--0--0--|--0----0--0--0--0--0--0--|--0--0-0-|
D||---------------------------|-------------------------|---------|


                                                   
|--5----5----5--5--5--4--0--|--4----4--2--4----5----|
|--4----4----4--4--4--4--0--|--2----2--2--2----4----|
|--4----4----4--4--4--4--0--|--2----2--2--2----4----|
|--4----4----4--4--4--4--0--|--2----2--2--2----4----|
|--0----0----0--0--0--0--0--|--0----0--0--0----0----|
|---------------------------|-----------------------|


                                                   
|--7----7--5--7----8----|--10----10--8--10----12/---|
|--5----5--5--5----7----|--8-----8---8--8-----------|
|--5----5--5--5----7----|--8-----8---8--8-----------|
|--5----5--5--5----7----|--8-----8---8--8-----------|
|--0----0--0--0----0----|--8-----8---8--8-----------|
|-----------------------|---------------------------|


                                                           
||---------------0------------||--7h5----------2h0----------|
||------------5-----5-----5---||------6-----6------0-----0--|
||*--------6-----------6-----*||---------7------------0-----|
||*-----7--------------------*||--0------------0------------|
||---0------------------------||----------------------------|
||----------------------------||----------------------------|


                                                             
|--5h3-------3-----------0-------0-|-----------0-----------0--|
|------4---4---4-------5-------4---|--------2-----2-----2-----|
|--------5-------5---0-------0-----|-----0-----------0--------|
|--0-------------------------------|--------------------------|
|------------------5-------4-------|--2-----------------------|
|----------------------------------|--------------------------|


                         
|------------0-----------||
|----------2-------------||
|--------2---------------||
|------2-----------------||
|----0-------------------||
|--0---------------------||


     
Добавлено: 22.06.2013
Другие материалы по этой песне:
  • Аккорды и текст

Страница создана 22.06.2013
http://primanota.ru/led-zeppelin/the-rain-song-ending-chords.htm
Привет, Гость.
Предлагаем пройти революционный курс по гитаре.
Подарок от PrimaNota.Ru, забирай!