PrimaNota.ru - самый крупный в мире бесплатный архив песенных текстов, аккордов, табулатур и нот


Led Zeppelin - stairway to heaven live - текст песни, таба, видео

Регистрация Запомнить меня
Войти через:  Facebook Google Twitter Vk Yandex Mail.ru

Led Zeppelin - stairway to heaven live - текст песни, таба, видео

Печатать
Просмотров: 65
-------------------------------------------------------------------------------
                             Stairway To Heaven - Led Zeppelin
-------------------------------------------------------------------------------
Tabbed by: Davide Bencivinni
E-mail: davidebncv@libero.it

Tuning: standard (EADGBe)

I've tabbed from the live performance at Earls Court (25 May 1975). 
I've only tabbed the solo, the rest is similar to MSG version.
Not sure it's 100% correct. Feel free to correct it if you're sure about a correction.


           ~~~                        ~~~~
e |--------------5-------------------------------8-8-(8)-8b10-8pb10-5-------8-10p8-------------|
B |----------------8p5----------------------8b10-----------------------8s10--------10-8---8-10-|
G |---5-7b9------------7p5---7p5--------------------------------------------------------9------|
D |-7----------------------7-----7p5-----------------------------------------------------------|
A |----------------------------------8---------------------------------------------------------|
E |--------------------------------------------------------------------------------------------|

                                                    x5          ~~x8       ~~x3
e |-------8-10p8-------------|----10p8--------------|---|-8-------|-8--------|-8--------------------|
B |--8-10--------10p8---10---|°-8------10p8---10---°|-8-|°--8b10-°|°--8-----°|----------------------|
G |-------------------9----9-|--------------9----9--|---|---------|-----7b9--|----7b9r7-5h7p5-7p5---|
D |--------------------------|----------------------|---|---------|----------|--------------------7-|
A |--------------------------|°--------------------°|---|°-------°|°--------°|----------------------|
E |--------------------------|----------------------|---|---------|----------|----------------------|

                                                                                                            
e |-----------------------------------------------------------------------|
B |-----------------------------------------------------------------------|
G |-5h7p5-7-5---5--------------------------5--------7---------5---------5-|
D |-----------7---5h7p5---5h7p5h7---5h7(p5)--5h7(p5)--5h7(p5)---5h7(p5)---|
A |---------------------7-------------------------------------------------|
E |-----------------------------------------------------------------------|

                                                                 ~~
e |---------------------------------------------------------------|
B |---------------------------------------------------------(6)-6-|
G |-----------------------------------------------------5-7-------|
D |-7-5h7p5---5---------------------5-7-5-7p(0)-7-5p(0)-----------|
A |---------7---(7)-7s5-3h5p3h5-5s7-------------------------------|
E |---------------------------------------------------------------|
   
               ~~     ~          ~        ~        ~                        x6
e |----------------------------------------------------|--------------------|-------------(8)s10-8----(8)/|
B |-5-6-(8)-8-8--6p5-6--5h6p5---5----------------------|°------------------°|------6----8----------10-----|
G |---------------------------7----5-7-4-5--4h5p4-2-/-\|---------5--------7-|---------7-------------------|
D |-------------------------------------------------/-\|--5h7(p5)--5h7(p5)--|-5h7-------------------------|
A |----------------------------------------------------|°------------------°|-----------------------------|
E |----------------------------------------------------|--------------------|-----------------------------|

     TP                TP          TP                TP      TP                TP
e |-/12-10-12-10-12-10-8---8--(10)s12-10-12-10-12-10-8---/14-12-10-12-10-12-10-8---/14-x-12-10--/14-x-12-10-8--|
B |-/13-12-13-12-13-12-10--10-(12)s13-12-13-12-13-12-10--/15-13-12-13-12-13-12-10--/15-x-13-12--/15-x-13-12-10-|
G |------------------------------------------------------------------------------------------------------------|
D |------------------------------------------------------------------------------------------------------------|
A |------------------------------------------------------------------------------------------------------------|
E |------------------------------------------------------------------------------------------------------------|

                                              x4                             ~x4
e |-/14-(x)-\12-10-8---|-------5----------5---|--------------|----------------|--------------------------------|
B |-/15-(x)-\13-12-10--|°----5---8------5---8°|-/13-13p10-12-|°13-13p12p10-12°|-10-13=br-12-12b13-13p12p10-10--|
G |--------------------|-7b9--------7b9-------|--------------|----------------|--------------------------------|
D |--------------------|----------------------|--------------|----------------|--------------------------------|
A |--------------------|°--------------------°|--------------|°--------------°|--------------------------------|
E |--------------------|----------------------|--------------|----------------|--------------------------------|

                         ~            ~                     ~                  ~
e |------------------------------------------------------------------------------|
B |-13=-13p12-10-12-10-12--13p12-10-12--13p12-10-12-13b15r13--12-12b13-13p12-10--|
G |------------------------------------------------------------------------------|
D |------------------------------------------------------------------------------|
A |------------------------------------------------------------------------------|
E |------------------------------------------------------------------------------|

               ~                ~                               ~
e |-----------------------------------------------------------------------------------------------5---|
B |-13p12-10-12-(13)-13p12-10-12--13-12-10--------------13b15r13--13-12-10-12-10-12-13----------5---8-|
G |----------------------------------------12b14r12-10----------------------------------12/-7b9-------|
D |---------------------------------------------------------------------------------------------------|
A |---------------------------------------------------------------------------------------------------|
E |---------------------------------------------------------------------------------------------------|

                                                                                            x10
e |--------------------------------------------------------------------|--------------------|----15b17-|
B |----------------------------------------------15b17--13----13h15b17-|°---13-15b17r15p13-°|--13------|
G |---------10-------------------12-12-12-14-14------------14----------|-14-----------------|----------|
D |-----(10)---12p10----10-12s14---------------------------------------|--------------------|----------|
A |-/12--------------12------------------------------------------------|°------------------°|----------|
E |--------------------------------------------------------------------|--------------------|----------|

                                                      ~                     ~                    ~
e |--------------------------------------------------------------------------------------------12--|
B |-10-12-13-12-10-12-13-12-10-12-13-12-10-12-13-12-10--10-12-13-12-10--------10h12h13-10h12h3-----|
G |--------------------------------------------------------------------12-10-----------------------|
D |------------------------------------------------------------------------------------------------|
A |------------------------------------------------------------------------------------------------|
E |------------------------------------------------------------------------------------------------|

                                             ~                                 ~ x2
e |-12-10--------------------------------------|---------------------------------|
B |-------12h13p12p10-12h13p12h13p12p10--------|°-10-12-13-10-12-13-10-10-12-13-°|
G |-------------------------------------12-10--|---------------------------------|
D |--------------------------------------------|---------------------------------|
A |--------------------------------------------|°-------------------------------°|
E |--------------------------------------------|---------------------------------|


e |---------------------------------------------------------------------------------------------------------|
B |-10-12-13-10-12-13-10-10h12h13p12-13p12-10-12-13-12-10tr12-----------------------------10tr12------------|
G |----------------------------------------------------------10tr12-----------------10tr12------10h12-------|
D |----------------------------------------------------------------10tr12------10h12-----------------10tr12-|
A |----------------------------------------------------------------------10tr12-----------------------------|
E |---------------------------------------------------------------------------------------------------------|

                                                 ~                                     ~
e |----------------------------------10h12h13-13b--13b-13-12-13b-13-12-13b-13-12-13b-13-|
B |-----------------10h12h13-10h12h13---------------------------------------------------|
G |------------10h12--------------------------------------------------------------------|
D |-------10h12-------------------------------------------------------------------------|
A |-10tr12------------------------------------------------------------------------------|
E |-------------------------------------------------------------------------------------|


e |-15b17-15-12-15---------------------------------------------5------------5---------8----8----8---------|
B |----------------12h13p12h13----12--13-13b-12-13b----------5---8-(8)----5---8-(8)-8b10-8b10-8b10-8b10r8-|
G |----------------------------14-------------------14/--7b9-----------7b9--------------------------------|
D |-------------------------------------------------------------------------------------------------------|
A |-------------------------------------------------------------------------------------------------------|
E |-------------------------------------------------------------------------------------------------------|

            x12
e |-------8-|------------------------------------------------------------------------------------|
B |°-8b10--°|-12-13-12h13p12-12-13-15p13-13-12-13------------------------------------------------|
G |---------|-------------------------------------14/--5-7b9r7--7b-5-7b9r7-5---------7p5-7p5---5-|
D |---------|----------------------------------------------------------------7-(7)-7---------7---|
A |°-------°|------------------------------------------------------------------------------------|
E |---------|------------------------------------------------------------------------------------|

                                          ~                       ~
e |----------------------------------------------------------------|
B |----------------------------------------------------------------|
G |---7-7p5---5----5-7-7b9---5-7-7b9r7-5-7---------10h12p10----10--|
D |-7-------7----7---------7----------------/12-12----------12-----|
A |----------------------------------------------------------------|
E |----------------------------------------------------------------|

                                 ~                              ~
e |----------------------------17--------------------------15b17--------------------------|
B |---------------------------------------------------------------------------------------|
G |-/-5-7b9r7p5-----7b9r7p5--------5-7-7b9r7p5---7b9r7p5------------5-7b9r7p5---7b9r7p5---|
D |-------------(7)---------7------------------7---------7--------7-----------7---------7-|
A |---------------------------------------------------------------------------------------|
E |---------------------------------------------------------------------------------------|

      ~  ~  ~  ~  ~  ~  ~  ~  ~
e |-17-17-17-17-17-17-17-16-17-17/---------------------20p17-20p17-20p17-20p17-20p17-20/-|
B |--------------------------------------------------------------------------------------|
G |--------------------------------7b9r7p5---7b9r7p5-------------------------------------|
D |----------------------------------------7---------7-----------------------------------|
A |--------------------------------------------------------------------------------------|
E |--------------------------------------------------------------------------------------|
Добавлено: 14.04.2016
Другие материалы по этой песне:
  • Аккорды и текст

Страница создана 07.12.2013
http://primanota.ru/led-zeppelin/stairway-to-heaven-live-2-chords.htm
Привет, Гость.
Предлагаем пройти революционный курс по гитаре.
Подарок от PrimaNota.Ru, забирай!