PrimaNota.ru - самый крупный в мире бесплатный архив песенных текстов, аккордов, табулатур и нот


Led Zeppelin - Stair To Heaven - таба, видео

Регистрация Запомнить меня
Войти через:  Facebook Google Twitter Vk Yandex Mail.ru

Led Zeppelin - Stair To Heaven - таба, видео

Печатать
Просмотров: 288
Stairway to heaven - Led Zeppelin
Flute Intro

Tabbed By Craig DiMasi


This is the flute solo to be played over to guitar intro at the start.  I 
think there's three flutes playing on the record but i'm using mostly just 
two, adding the third in every now and then.  It sounds more clean, or less 
cluttered that way i think.



********************************************************************


E--5---5---5---0---0~----------0-0-|
B--5---5---5---5---5~------0-------|
G--------------------2-2---0---2-2-|
D--7---6---5---4---3~--------------|
A----------------------------------|
E----------------------------------|


E---------------------------------5-5---|
B--5---7---10--8-6-5---8---4---8--7-7---|
G--5---7---10~-----5---5---7---7--7-7---|
D------------------7--------------------|
A---------------------------------------|
E---------------------------------------|


A-----5-----------5--8-7-8----8-10--12--10---3--5-5--|
B--5---7-8-7-5----6~----10~------------------5--6-6--|
G--5-----7~----7--5~--------------------7------------|
D-----------------------------------10-------0-------|
A-----------------------------------------------8-8--|
E----------------------------------------------------|

_________________________________________________________________
     
Добавлено: 05.12.2013
Другие материалы по этой песне:
  • Аккорды и текст

Страница создана 20.08.2013
http://primanota.ru/led-zeppelin/stair-to-heaven-chords.htm
Привет, Гость.
Предлагаем пройти революционный курс по гитаре.
Подарок от PrimaNota.Ru, забирай!