PrimaNota.ru - самый крупный в мире бесплатный архив песенных текстов, аккордов, табулатур и нот


Led Zeppelin - Let's Have A Party - текст песни, таба, видео

Регистрация Запомнить меня
Войти через:  Facebook Google Twitter Vk Yandex Mail.ru

Led Zeppelin - Let's Have A Party - текст песни, таба, видео

Печатать
Просмотров: 210
Авторы музыки: Jessie Mae Robinson
Авторы текста: Jessie Mae Robinson
Artist: Led Zeppelin
Song: Let's Have A Party
Album: How The West Was Won [LIVE ALBUM] (Part of 'Whole Lotta Love' medley)
Tabbed by: MattyJoe


    "Some people like to rock"           "Some people like to roll"
E|----------------------------------------------------------------------------|
B|----------------------------------------------------------------------------|
G|----------------------------------------------------------------------------|
D|-----------------------------2-2-2---------------------------------2-2----2-|
A|-----------------------------2-2-2---------------------------------2-2----2-|
E|-----------------------------0-0-0---------------------------------0-0--0-0-|


    "But movin and groovin gonna satisfy my soul, let's have a party!"       "Woooo!"
E|--------------------------------------------------------------------------------3--|
B|--------------------------------------------------------------------------------2--|
G|--------------------------------------------------------------------------------0--|
D|----------------------------------------------------------------2-2-4-4--2-2-4-----|
A|----------------------------------------------------------------0-0-0-0--0-0-0-----|
E|-----------------------------------------------------------------------------------|

             "Let's have a party"
E|--------------------------------------------------------------|
B|-------------------------------------------0------------------|
G|-------------------------------------------4------------------|
D|-2-4-4--2-2-4-2----------------------------4------------------|
A|-0-0-0--0-0-0-0------------2-2-4-4--2-2-4-----2-4-4--2-2-4-2--|
E|---------------------------0-0-0-0--0-0-0-----0-0-0--0-0-0-0--|

 "Send him to the store..."
E|---------------------------------------------------0/4-4-4-4-4-4-4-4\0-|
B|---------------------------------------------------0/5-5-5-5-5-5-5-5\0-|
G|---------------------------------------------------0/4-4-4-4-4-4-4-4\0-|
D|---4-4-4-4-4-4-4-2--2-2-2-2-2-2---4-4-4-4-4-4-4-2----------------------|
A|---2-2-2-2-2-2-2-0--0-0-0-0-0-0-2-2-2-2-2-2-2-2-0----------------------|
E|--------------------------------0-0-0-0-0-0-0-0-0----------------------|

    "Now Honkey Tonkey Joe"      "Is knockin at the door"      "So bring him in..."
E|-----------------------------------------------------------------------------------|
B|-----------------------------------------------------------------------------------|
G|-----------------------------------------------------------------------------------|
D|--------------------------2-2---------------------------2-2------------------------|
A|--------------------------2-2---------------------------2-2------------------------|
E|--------------------------0-0---------------------------0-0------------------------|


E|----------------------------------3--------------------------------------|
B|----------------------------------2------------------------------------0-|
G|----------------------------------0------------------------------------4-|
D|--22-33-44-5-6-7--2-2-4-4--2-2-4-----2-4-4--2-2-4-2--------------------4-|
A|------------------0-0-0-0--0-0-0-----0-0-0--0-0-0-0----2-2-4-4--2-2-4----|
E|-------------------------------------------------------0-0-0-0--0-0-0----|


E|------------------------------------------------------------------|
B|------------------------------------------------------------------|
G|------------------------------------------------------------------|
D|------------------4-4-4-4-4-4-4-2--2-2-2-2-2-2---4-4-4-4-4-4-4-2--|
A|-2-4-4--2-2-4-2---2-2-2-2-2-2-2-0--0-0-0-0-0-0-2-2-2-2-2-2-2-2-0--|
E|-0-0-0--0-0-0-0--------------------------------0-0-0-0-0-0-0-0-0--|
Добавлено: 14.08.2013
Другие материалы по этой песне:
  • Аккорды и текст

Страница создана 21.03.2012
http://primanota.ru/led-zeppelin/lets-have-a-party-chords.htm
Привет, Гость.
Предлагаем пройти революционный курс по гитаре.
Подарок от PrimaNota.Ru, забирай!